» » »

Sasquatch Mister - Dragonfly Tabs

Artists:  A B C D E F G H I J K L M N O P Q R S T U V W X Y Z # 

Dragonfly Tabs

(ver. 1) Click to play this song!
Sasquatch Mister
 Rating:
4.3/5 (9 votes)

 Dragonfly  lessons Tabs too difficult? Try these video lessons and learn fast
 
                [Intro][Clean channel] [Play x2]

C |---------------------------------------------------------------------------|
G |---------------------------------------------------------------------------|
D#|---------------------------------------------------------------------------|
A#|---------------------5-----------------------------------------------------|
F |--5h7-7-7--7-5h7-5h7---7-5h7-7-7-7p5---------------------------------------|
C |-------------------------------------5-3-----------------------------------|

[Play x2]

C |---------------------------------------------------------------------------|
G |---------------------------------------------------------------------------|
D#|---------------------------------------------------------------------------|
A#|---------------------5-----------------------------------------------------|
F |--5h7-7-7--7-5h7-5h7---7-5h7-7-7-7p5-7-5-----------------------------------|
C |-------------------------------------5-3-----------------------------------|



[Verse] [Play x4]

C |---------------------------------------------------------------------------|
G |---------------------------------------------------------------------------|
D#|---------------------------------------------------------------------------|
A#|---------------------------------------------------------------------------|
F |--5h7-7-7--7-5h7-5h7-7-7-5h7-7-7-7p5---------------------------------------|
C |-------------------------------------5-3-----------------------------------|

[Play x4]

C |---------------------------------------------------------------------------|
G |---------------------------------------------------------------------------|
D#|---------------------------------------------------------------------------|
A#|---------------------------------------------------------------------------|
F |--5h7-7-7--7-5h7-5h7-7-7-7-7-7-7/5-5-5-5-5---------------------------------|
C |-------------------------5-5-5-5/3-3-3-3-3---------------------------------|

Solo

[Outro]

C |---------------------------------------------------------------------------|
G |---------------------------------------------------------------------------|
D#|---------------------------------------------------------------------------|
A#|---------------------5-----------------------------------------------------|
F |--5h7-7-7--7-5h7-5h7---7-5h7-7-7-7p5-7-5-----------------------------------|
C |-------------------------------------5-3-----------------------------------|


C |---------------------------------------------------------------------------|
G |---------------------------------------------------------------------------|
D#|---------------------------------------------------------------------------|
A#|---------------------5-----------------------9-----------------------------|
F |--5h7-7-7--7-5h7-5h7---7-5h7-7-7-7p5-7-5-----7-----------------------------|
C |-------------------------------------5-3-----------------------------------|            
Submit corrections


        Dragonfly  lessons Hard to play? Try these video lessons and learn fast Dragonfly  lessons
        
↑ Back to top | Tablatures and chords for acoustic guitar and electric guitar, ukulele, drums are parodies/interpretations of the original songs. You may use it for private study, scholarship, research or language learning purposes only