» » »

Sasquatch Mister - Cyrus Tabs

Artists:  A B C D E F G H I J K L M N O P Q R S T U V W X Y Z # 

Cyrus Tabs

(ver. 1) Click to play this song!
Sasquatch Mister
 Rating:
4.4/5 (7 votes)

 Cyrus  lessons Tabs too difficult? Try these video lessons and learn fast
 
                [Intro]

C#|---------------------------------------------------------------------------|
G#|---------------------------------------------------------------------------|
E |---------------------------------------------------------------------------|
B |---------------------------------------------------------------------------|
F#|---------------------------------------------------------5-5---------------| x8
C#|-8h10p8-5-5-5-5-8h10p8-5-5-5-5-8h10p8-5-5-5-5-8h10p8-5-5-3-3---------------| 

[Verse]

C#|---------------------------------------------------------------------------|
G#|---------------------------------------------------------------------------|
E |---------------------------------------------------------------------------|
B |---------------------------------------------------------------------------|
F#|---------------------------------------------------------5-5---------------| x4
C#|-8h10p8-5-5-5-5-8h10p8-5-5-5-5-8h10p8-5-5-5-5-8h10p8-5-5-3-3---------------|

[Chorus]

C#|---------------------------------------------------------------------------|
G#|---------------------------------------------------------------------------|
E |---------------------------------------------------------------------------|
B |------------------------12~------------------------------------------------|
F#|--5-7--5-7--7--10-12-12-10~------------------------------------------------| x4
C#|--3-5--3-5--5--8--10-10-8~-------------------------------------------------|

[Verse]

C#|---------------------------------------------------------------------------|
G#|---------------------------------------------------------------------------|
E |---------------------------------------------------------------------------|
B |---------------------------------------------------------------------------|
F#|---------------------------------------------------------5-5---------------| x8
C#|-8h10p8-5-5-5-5-8h10p8-5-5-5-5-8h10p8-5-5-5-5-8h10p8-5-5-3-3---------------|

[Chorus]

C#|---------------------------------------------------------------------------|
G#|---------------------------------------------------------------------------|
E |---------------------------------------------------------------------------|
B |------------------------12~------------------------------------------------|
F#|--5-7--5-7--7--10-12-12-10~------------------------------------------------| x4
C#|--3-5--3-5--5--8--10-10-8~-------------------------------------------------|

[Bridge]

C#|---------------------------------------------------------------------------|
G#|---------------------------------------------------------------------------|
E |---------------------------------------------------------------------------|
B |---------------------------------------------------------------------------|
F#|--12-12-12-12-----10-X-10-X-10-X-10-X-10-X-10-5----------------------------|
C#|--10-10-10-10-----8--X--8-X--8-X--8-X--8-X--8-3----------------------------|

[Solo]

[Chorus]

C#|---------------------------------------------------------------------------|
G#|---------------------------------------------------------------------------|
E |---------------------------------------------------------------------------|
B |------------------------12~------------------------------------------------|
F#|--5-7--5-7--7--10-12-12-10~------------------------------------------------| x8
C#|--3-5--3-5--5--8--10-10-8~-------------------------------------------------|

[Outro]

C#|---------------------------------------------------------------------------|
G#|---------------------------------------------------------------------------|
E |---------------------------------------------------------------------------|
B |---------------------------------------------------------------------------|
F#|---------------------------------------------------------5-5---------------| x8
C#|-8h10p8-5-5-5-5-8h10p8-5-5-5-5-8h10p8-5-5-5-5-8h10p8-5-5-3-3---------------|             
Submit corrections


        Cyrus  lessons Hard to play? Try these video lessons and learn fast Cyrus  lessons
        
↑ Back to top | Tablatures and chords for acoustic guitar and electric guitar, ukulele, drums are parodies/interpretations of the original songs. You may use it for private study, scholarship, research or language learning purposes only