» » »

Sasquatch Mister - Cracks In The Pavement Tabs

Artists:  A B C D E F G H I J K L M N O P Q R S T U V W X Y Z # 

Cracks In The Pavement Tabs

(ver. 1) Click to play this song!
Sasquatch Mister
 Rating:
4.3/5 (9 votes)

 Cracks In The Pavement  lessons Tabs too difficult? Try these video lessons and learn fast
 
                [Intro] (x2)

C |---------------------------------------------------------------------------|
G |---------------------------------------------------------------------------|
D#|---------------------------------------------------------------------------|
A#|---------------------------------------------------------------------------|
F |---------------------------------------------------------------------------|
A#|-0-0-0-0-0-0-0-0-0-0-0-0-0-0-0-0-0-0-0-------------------------------------

[Verse] (x4)

C |---------------------------------------------------------------------------|
G |---------------------------------------------------------------------------|
D#|---------------------------------------------------------------------------|
A#|---------------------------------------------------------------------------|
F |-0-0-0-0-0-0-0-0-0-0-0-0-0-0-0-0-0-0-0-------------------------------------|
A#|-0-0-0-0-0-0-0-0-0-0-0-0-0-0-0-0-0-0-0-------------------------------------|

[Chorus] (x4)

C |---------------------------------------------------------------------------|
G |---------------------------------------------------------------------------|
D#|---------------------------------------------------------------------------|
A#|---------------------------------------------------------------------------|
F |-0-0-0-0-3-3-3-3-5-5-5-5-6-6---0-0-0-0-3-3-3-3-5-5-5-5-6-6-----------------|
A#|-0-0-0-0-3-3-3-3-5-5-5-5-6-6---0-0-0-0-3-3-3-3-5-5-5-5-6-6-----------------|

[Verse] (x8)

C |---------------------------------------------------------------------------|
G |---------------------------------------------------------------------------|
D#|---------------------------------------------------------------------------|
A#|---------------------------------------------------------------------------|
F |-0-0-0-0-0-0-0-0-0-0-0-0-0-0-0-0-0-0-0-------------------------------------|
A#|-0-0-0-0-0-0-0-0-0-0-0-0-0-0-0-0-0-0-0-------------------------------------|

[Outro]


C |---------------------------------------------------------------------------|
G |---------------------------------------------------------------------------|
D#|---------------------------------------------------------------------------|
A#|------------------------------------------12-------------------------------|
F |-0-0-0-0-0-0-0-0-0-0-0-0-0-0-0-0-0-0-0-------------------------------------|
A#|-0-0-0-0-0-0-0-0-0-0-0-0-0-0-0-0-0-0-0/12----------------------------------|



C |---------------------------------------------------------------------------|
G |---------------------------------------------------------------------------|
D#|---------------------------------------------------------------------------|
A#|---------------------------------------------------------------------------|
F |-0-0-0-0-0-0-0-0-0-0-0-0-0-0-0-0-0-0-0-------12-12-12-12\0-----------------|
A#|-0-0-0-0-0-0-0-0-0-0-0-0-0-0-0-0-0-0-0/15~~--12-12-12-12\0-----------------|            
Submit corrections


        Cracks In The Pavement  lessons Hard to play? Try these video lessons and learn fast Cracks In The Pavement  lessons
        
↑ Back to top | Tablatures and chords for acoustic guitar and electric guitar, ukulele, drums are parodies/interpretations of the original songs. You may use it for private study, scholarship, research or language learning purposes only