» » »

Sasquatch Mister - Chemical Lady Tabs

Artists:  A B C D E F G H I J K L M N O P Q R S T U V W X Y Z # 

Chemical Lady Tabs

(ver. 1) Click to play this song!
Sasquatch Mister
 Rating:
4.4/5 (7 votes)

 Chemical Lady  lessons Tabs too difficult? Try these video lessons and learn fast
 
                [Intro] (eg x4)

C#|--------------------------------------------------------------------------|
G#|--------------------------------------------------------------------------|
E|---------------------------------------------------------------------------|
B|---------------------------------------------------------------------------|
F#|--------------------------------------------------------------------------|
C#|--0-0-3-3-3h5p3p0h3h5--0-0-3-3-3h5p3p0h3h5----0-0-3-3-3h5p3p0h3h5---------|


[Verse] [PALM MUTED INTRO] (eg x4)

C#|--------------------------------------------------------------------------|
G#|--------------------------------------------------------------------------|
E|---------------------------------------------------------------------------|
B|---------------------------------------------------------------------------|
F#|--------PM----------------------PM----------------------PM----------------|
C#|--0-0-3-3-3h5p3p0h3h5--0-0-3-3-3h5p3p0h3h5----0-0-3-3-3h5p3p0h3h5---------|

[Chorus]

C#|--------------------------------------------------------------------------|
G#|--------------------------------------------------------------------------|
E|---------------------------------------------------------------------------|
B|---2-2-2-2-2-2-2-2-2-2-2-2-2-2-2-2-5-5-5-5-5-5-5-5-5-5-5-5-5-5-5-5---------|
F#|--2-2-2-2-2-2-2-2-2-2-2-2-2-2-2-2-5-5-5-5-5-5-5-5-5-5-5-5-5-5-5-5---------|
C#|--0-0-0-0-0-0-0-0-0-0-0-0-0-0-0-0-3-3-3-3-3-3-3-3-3-3-3-3-3-3-3-3---------|


C#|--------------------------------------------------------------------------|
G#|--------------------------------------------------------------------------|
E|---------------------------------------------------------------------------|
B|---2-2-2-2-2-2-2-2-2-2-2-2-2-2-2-2-5-5-5-5-5-5-5-5-5-5-5-5-5-5-5-5-7-7-7-7-|
F#|--2-2-2-2-2-2-2-2-2-2-2-2-2-2-2-2-5-5-5-5-5-5-5-5-5-5-5-5-5-5-5-5-7-7-7-7-|
C#|--0-0-0-0-0-0-0-0-0-0-0-0-0-0-0-0-3-3-3-3-3-3-3-3-3-3-3-3-3-3-3-3-5-5-5-5-|

C#|--------------------------------------------------------------------------|
G#|--------------------------------------------------------------------------|
E|---------------------------------------------------------------------------|
B|---------------9-8-7-------------------------------------------------------|
F#|--7-6-5-------------9-8-7-------------------------------------------------|
C#|--------7-6-5-------------------------------------------------------------|

[Verse]

C#|--------------------------------------------------------------------------|
G#|--------------------------------------------------------------------------|
E|---------------------------------------------------------------------------|
B|---------------------------------------------------------------------------|
F#|--------PM----------------------PM----------------------PM----------------|
C#|--0-0-3-3-3h5p3p0h3h5--0-0-3-3-3h5p3p0h3h5----0-0-3-3-3h5p3p0h3h5---------|

[Chorus]

C#|--------------------------------------------------------------------------|
G#|--------------------------------------------------------------------------|
E|---------------------------------------------------------------------------|
B|---2-2-2-2-2-2-2-2-2-2-2-2-2-2-2-2-5-5-5-5-5-5-5-5-5-5-5-5-5-5-5-5---------|
F#|--2-2-2-2-2-2-2-2-2-2-2-2-2-2-2-2-5-5-5-5-5-5-5-5-5-5-5-5-5-5-5-5---------|
C#|--0-0-0-0-0-0-0-0-0-0-0-0-0-0-0-0-3-3-3-3-3-3-3-3-3-3-3-3-3-3-3-3---------|


C#|--------------------------------------------------------------------------|
G#|--------------------------------------------------------------------------|
E|---------------------------------------------------------------------------|
B|---2-2-2-2-2-2-2-2-2-2-2-2-2-2-2-2-5-5-5-5-5-5-5-5-5-5-5-5-5-5-5-5-7-7-7-7-|
F#|--2-2-2-2-2-2-2-2-2-2-2-2-2-2-2-2-5-5-5-5-5-5-5-5-5-5-5-5-5-5-5-5-7-7-7-7-|
C#|--0-0-0-0-0-0-0-0-0-0-0-0-0-0-0-0-3-3-3-3-3-3-3-3-3-3-3-3-3-3-3-3-5-5-5-5-|

C#|--------------------------------------------------------------------------|
G#|--------------------------------------------------------------------------|
E|---------------------------------------------------------------------------|
B|---------------7-8-9-------------------------------------------------------|
F#|--7-6-5-------------5-6-7-------------------------------------------------|
C#|--------5-6-7-------------------------------------------------------------|

[Bridge]

C#|--------------------------------------------------------------------------|
G#|--------------------------------------------------------------------------|
E|---------------------------------------------------------------------------|
B|---2-2-2-2-2-2-2-2-2-2-2-2-2-2-2-2-12-12-12-12-12-12-12-12-12-12-12-12-12--|
F#|--2-2-2-2-2-2-2-2-2-2-2-2-2-2-2-2-12-12-12-12-12-12-12-12-12-12-12-12-12--|
C#|--0-0-0-0-0-0-0-0-0-0-0-0-0-0-0-0-10-10-10-10-10-10-10-10-10-10-10-10-10--|

[solo] 

[Verse Part I] (eg x2)

C#|--------------------------------------------------------------------------|
G#|--------------------------------------------------------------------------|
E|---------------------------------------------------------------------------|
B|---------------------------------------------------------------------------|
F#|--------------------------------------------------------------------------|
C#|--0-0-3-3-3h5p3p0h3h5--0-0-3-3-3h5p3p0h3h5----0-0-3-3-3h5p3p0h3h5---------|

[Verse Part II] (eg x2)

C#|--------------------------------------------------------------------------|
G#|--------------------------------------------------------------------------|
E|---------------------------------------------------------------------------|
B|------------------------12-12-12-13-13-13----------------------------------|
F#|-----------------------12-12-12-13-13-13----------------------------------|
C#|--0-0-3-3-3h5p3p0h3h5--10-10-10-11-11-11----------------------------------|


[Outro]

C#|--------------------------------------------------------------------------|
G#|--------------------------------------------------------------------------|
E|---------------------------------------------------------------------------|
B|---2----2----2----2-~~~---2------------------------------------------------|
F#|--2----2----2----2-~~~---2------------------------------------------------|
C#|--0----0----0----0-~~~---0------------------------------------------------|
            
Submit corrections


        Chemical Lady  lessons Hard to play? Try these video lessons and learn fast Chemical Lady  lessons
        
↑ Back to top | Tablatures and chords for acoustic guitar and electric guitar, ukulele, drums are parodies/interpretations of the original songs. You may use it for private study, scholarship, research or language learning purposes only