» » »

Sasquatch Mister - Boss Hog Tabs

Artists:  A B C D E F G H I J K L M N O P Q R S T U V W X Y Z # 

Boss Hog Tabs

(ver. 1) Click to play this song!
Sasquatch Mister
 Rating:
4.4/5 (17 votes)

 Boss Hog  lessons Tabs too difficult? Try these video lessons and learn fast
 
                [Intro] 

C#|---------------------------------------------------------------------------|
G#|---------------------------------------------------------------------------|
E |---------------------------------------------------------------------------|
B |---------------------------------------------------------------------------| x4
F#|--9-9-9-9-9-9-9-9-7-7-7-7-7-7-7-7------------------------------------------|
C#|--7-7-7-7-7-7-7-7-5-5-5-5-5-5-5-5------------------------------------------|

[Verse] 

C#|---------------------------------------------------------------------------|
G#|---------------------------------------------------------------------------|
E |---------------------------------------------------------------------------|
B |---------------------------------------------------------------------------| x8
F#|--9-9-9-9-9-9-9-9-7-7-7-7-7-7-7-7------------------------------------------|
C#|--7-7-7-7-7-7-7-7-5-5-5-5-5-5-5-5------------------------------------------|

[Chorus] 

C#|---------------------------------------------------------------------------|
G#|---------------------------------------------------------------------------|
E |---------------------------------------------------------------------------|
B |---------------------------------------------------------------------------| x8
F#|--9-9-9-9-12-12-12-14-14-14-15-15-14---------------------------------------|
C#|--7-7-7-7-10-10-10-12-12-12-13-13-12---------------------------------------|

[Chorus] [Second Part] 

C#|---------------------------------------------------------------------------|
G#|---------------------------------------------------------------------------|
E |---------------------------------------------------------------------------|
B |---------------------------------------------------------------------------| x4
F#|--9-9-9-9-9-7-7-7-7-7-14-14-14-14-14---------------------------------------|
C#|--7-7-7-7-7-5-5-5-5-5-12-12-12-12-12---------------------------------------|


[Verse] 

C#|---------------------------------------------------------------------------|
G#|---------------------------------------------------------------------------|
E |---------------------------------------------------------------------------|
B |---------------------------------------------------------------------------| x8
F#|--9-9-9-9-9-9-9-9-7-7-7-7-7-7-7-7------------------------------------------|
C#|--7-7-7-7-7-7-7-7-5-5-5-5-5-5-5-5------------------------------------------|

[Chorus] 

C#|---------------------------------------------------------------------------|
G#|---------------------------------------------------------------------------|
E |---------------------------------------------------------------------------|
B |---------------------------------------------------------------------------| x8
F#|--9-9-9-9-12-12-12-14-14-14-15-15-14---------------------------------------|
C#|--7-7-7-7-10-10-10-12-12-12-13-13-12---------------------------------------|

[Chorus] [Second Part] 

C#|---------------------------------------------------------------------------|
G#|---------------------------------------------------------------------------|
E |---------------------------------------------------------------------------|
B |---------------------------------------------------------------------------| x4
F#|--9-9-9-9-9-7-7-7-7-7-14-14-14-14-14---------------------------------------|
C#|--7-7-7-7-7-5-5-5-5-5-12-12-12-12-12---------------------------------------|

[Outro]

C#|---------------------------------------------------------------------------|
G#|---------------------------------------------------------------------------|
E |---------------------------------------------------------------------------|
B |---------------------------------------------------------------------------| 
F#|--9-9-9-9-12-12-12-14-14-14-15-15-14-------9~~-----------------------------|
C#|--7-7-7-7-10-10-10-12-12-12-13-13-12-------7~~-----------------------------|
            
Submit corrections


        Boss Hog  lessons Hard to play? Try these video lessons and learn fast Boss Hog  lessons
        
↑ Back to top | Tablatures and chords for acoustic guitar and electric guitar, ukulele, drums are parodies/interpretations of the original songs. You may use it for private study, scholarship, research or language learning purposes only