» » »

Sasquatch Mister - Believe It Tabs

Artists:  A B C D E F G H I J K L M N O P Q R S T U V W X Y Z # 

Believe It Tabs

(ver. 1) Click to play this song!
Sasquatch Mister
 Rating:
4.3/5 (6 votes)

 Believe It  lessons Tabs too difficult? Try these video lessons and learn fast
 
                [Intro] (x4)

C#|---------------------------------------------------------------------------|
G#|---------------------------------------------------------------------------|
E |---------------------------------------------------------------------------|
B |---------------------------------8-7-5-------------------------------------|
F#|---------------------------------8-7-5-------------------------------------|
C#|-0-0-0-0-0-0-0-0-0-0-0-0-0-0-0-0-6-5-3-------------------------------------|

[Verse] (x8)

C#|---------------------------------------------------------------------------|
G#|---------------------------------------------------------------------------|
E |---------------------------------------------------------------------------|
B |---------------------------------8-7-5-------------------------------------|
F#|---------------------------------8-7-5-------------------------------------|
C#|-0-0-0-0-0-0-0-0-0-0-0-0-0-0-0-0-6-5-3-------------------------------------|

[Chorus] (x8)

C#|---------------------------------------------------------------------------|
G#|---------------------------------------------------------------------------|
E |-----7/9\7---7/9\7---7/9\7-------------------------------------------------|
B |-----7/9\7---7/9\7---7/9\7-8-7-5-------------------------------------------|
F#|-----5/7\5---5/7\5---5/7\5-8-7-5-------------------------------------------|
C#|-0-0-------0-------0-------6-5-3-------------------------------------------|


[Verse] (x8)

C#|---------------------------------------------------------------------------|
G#|---------------------------------------------------------------------------|
E |---------------------------------------------------------------------------|
B |---------------------------------8-7-5-------------------------------------|
F#|---------------------------------8-7-5-------------------------------------|
C#|-0-0-0-0-0-0-0-0-0-0-0-0-0-0-0-0-6-5-3-------------------------------------|


[Chorus] (x8)

C#|---------------------------------------------------------------------------|
G#|---------------------------------------------------------------------------|
E |-----7/9\7---7/9\7---7/9\7-------------------------------------------------|
B |-----7/9\7---7/9\7---7/9\7-8-7-5-------------------------------------------|
F#|-----5/7\5---5/7\5---5/7\5-8-7-5-------------------------------------------|
C#|-0-0-------0-------0-------6-5-3-------------------------------------------|

SOLO WITH WAH/WAH PEDAL

[Outro] (x4)

C#|---------------------------------------------------------------------------|
G#|------------------12-12-12-------------------------------------------------|
E |------------------16-16-16-------------------------------------------------|
B |--------------------------------------------8-7-5--------------------------|
F#|--------------------------------------------8-7-5--------------------------|
C#|-0-0-0-0-0-0-0-0------------0-0-0-0-0-0-0-0-6-5-3--------------------------|

[Outro] Last Riff

C#|---------------------------------------------------------------------------|
G#|------------------15-15-15-------------------------------------------------|
E |------------------19-19-19-------------------------------------------------|
B |--------------------------------------------8-7-5-2------------------------|
F#|--------------------------------------------8-7-5-2------------------------|
C#|-0-0-0-0-0-0-0-0------------0-0-0-0-0-0-0-0-6-5-3-0------------------------|            
Submit corrections


        Believe It  lessons Hard to play? Try these video lessons and learn fast Believe It  lessons
        
↑ Back to top | Tablatures and chords for acoustic guitar and electric guitar, ukulele, drums are parodies/interpretations of the original songs. You may use it for private study, scholarship, research or language learning purposes only