» » »

Sash - Ecuador Bass

Artists:  A B C D E F G H I J K L M N O P Q R S T U V W X Y Z # 

Ecuador Bass

(ver. 1) Click to play this song!
Sash
 Rating:
4.3/5 (22 votes)

 Ecuador lessons Tabs too difficult? Try these video lessons and learn fast
 
                Intro:  (Vocal and Synthesizer Start)

                               (Break)
G|---------------------------------|
D|---------------------------------|
A|-2-------------5---0---2-------2-|
E|---------------------------2-----|

Verse 1:                           (Play This Bit x4)
G|--------------------------------------------------|
D|--------------------------------------------------|
A|-2--2--2--2--2--2--2--2---5--5--0--0--2--2--------|
E|---------------------------------------------2--2-|

Chorus 1:
G|-----------------------------------------------------------|
D|-----------------------------------------------------------|
A|-2--2--2-2--2---2--2--2-2--2---2--2--2-2--2---2--2--2-2--2-|
E|-----------------------------------------------------------|

Bridge 1:                         (Play This Bit x3)
G|-------------------------------------------------|
D|-------------------------------------------------|
A|-2--2--2--2--2--2--2--2---5--5--0--0--2--2--2--2-|
E|-------------------------------------------------|

                       (Break)
G|------------------------|
D|------------------------|
A|-2--2--2--2--2--2--2--2-|
E|------------------------|

Verse 2:                           (Play This Bit x4)
G|--------------------------------------------------|
D|--------------------------------------------------|
A|-2--2--2--2--2--2--2--2---5--5--0--0--2--2--------|
E|---------------------------------------------2--2-|

Chorus 2:                                  (Play This Bit x16)
G|-----------------------------------------------------------|
D|-----------------------------------------------------------|
A|-2--2--2-2--2---2--2--2-2--2---2--2--2-2--2---2--2--2-2--2-|
E|-----------------------------------------------------------|

Bridge 2:
                              (Break)
G|---------------------------------|
D|---------------------------------|
A|-2-------------5---0---2-------2-|
E|---------------------------2-----|

Verse 3:                           (Play This Bit x3)
G|--------------------------------------------------|
D|--------------------------------------------------|
A|-2--2--2--2--2--2--2--2---5--5--0--0--2--2--------|
E|---------------------------------------------2--2-|

Outro:                                                              (END)
G|---------------------------------------------------------------------|
D|---------------------------------------------------------------------|
A|-2--2--2--2--2--2--2--2---5--5--0--0--2--2--------2--------2-------2-|
E|---------------------------------------------2--2--------------------|


            
Submit corrections


        Ecuador lessons Hard to play? Try these video lessons and learn fast Ecuador lessons
        
↑ Back to top | Tablatures and chords for acoustic guitar and electric guitar, ukulele, drums are parodies/interpretations of the original songs. You may use it for private study, scholarship, research or language learning purposes only