Home » S » Sara Evans »

Sara Evans - No Place That Far Tabs

Artists:  A B C D E F G H I J K L M N O P Q R S T U V W X Y Z # 

No Place That Far Tabs

(ver. 1) Click to play this song!
Sara Evans
 Rating:
4/5 (4 votes)
                Sara Evans - No Place That Far (picked intro)



This is a piano part which I've tabbed for guitar.

***********************************************************************
  
       Fadd9    G     F                  Fadd9        G 
   
E--0-1-3---0------------------------0-1--3-----0---------------
B---------1--1--0------1---1-1----1------1--1--1---1--0--------
G---------------0----0-0h2-0-0-----------2-2---2---2--0--0-2---
D------3-3------0------3---3-3-----------3------------0-0--0---
A--------------------------------------------------------------
E---------------3------------------------------1-1----3--------

      F      G     G7 C

E---0-1--0----------------|
B--3--1---1--3--------1---|
G-----2------0--0-----0---|
D-----3-3----0---3p0--2---|
A---------------------3---|
E------------3------------|
            
Submit corrections

↑ Back to top | Tablatures and chords for acoustic guitar and electric guitar, ukulele, drums are parodies/interpretations of the original songs. You may use it for private study, scholarship, research or language learning purposes only