Home » S » Sara Evans »

Sara Evans - A Real Fine Place To Start Tabs

Artists:  A B C D E F G H I J K L M N O P Q R S T U V W X Y Z # 

A Real Fine Place To Start Tabs

(ver. 1) Click to play this song!
Sara Evans
 Rating:
4/5 (4 votes)
                A Real Fine Place To Start
Sara Evans

--------------------------------------------------------
--------------------------------------------------------
----3--5--7--8------------------------------------------
------------------3--5--7--8----------------------------
--------------------------------3--5--7--8--7--5--3--0--
--------------------------------------------------------

--------------------------------------------------------
--------------------------------------------------------
---3--5--7--8--6--8--10--8--8--10s13--------------------
--------------------------------------------------------
--------------------------------------------------------
--------------------------------------------------------

Thats what I came up with. Not too hard!

God Bless!
            
Submit corrections

↑ Back to top | Tablatures and chords for acoustic guitar and electric guitar, ukulele, drums are parodies/interpretations of the original songs. You may use it for private study, scholarship, research or language learning purposes only