» » »

Saosin - Voices Tabs

Artists:  A B C D E F G H I J K L M N O P Q R S T U V W X Y Z # 

Voices Tabs

(ver. 2) Click to play this song!
Saosin
 Rating:
4/5 (4 votes)

 Voices lessons Tabs too difficult? Try these video lessons and learn fast
 
                                            Saosin - Voices


                  Tuning: down a full step: DGCFAD
 

                             -Guitar 1- 

intro
D|-------12p0-12-------------12p0-12---------|
A|-------------------------------------------|
F|--0h11---------11-0h9-0h11---------11--0h9-|
C|-------------------------------------------|
G|-------------------------------------------|
D|-------------------------------------------|

chorus
D|-----12p0-12-------------------------------14p0-14-------------------------------|
A|---------------------------------------------------------------------------------|
F|-0h11-------11-0h9-11-11-11-11-7-7-7-7-0h11-------11-0h9-11-11-11-11-14-14-14-14-|
C|---------------------------------------------------------------------------------|
G|---------------------------------------------------------------------------------|
D|---------------------------------------------------------------------------------|

D|-----12p0-12-------------------------------14p0-14------14p0-14------14p0--|
A|---------------------------------------------------------------------------|
F|-0h11-------11-0h9-11-11-11-11-7-7-7-7-0h11-------11-0h9-------11-0h9------|
C|---------------------------------------------------------------------------|
G|---------------------------------------------------------------------------|
D|---------------------------------------------------------------------------|

verse
D|-------|
A|-------|
F|-------| Guitar 1 doesn't come back in until the pre-chorus
C|--9~---|
G|--9~---|
D|--7~---|

pre-chorus x2 
D|-------------------------------------------------------------------------|
A|---------------12--------------------------------------------------------|
F|----------11-14--11\9--9--11--11-------------11-14-12-11\9--9--11--11----|
C|-0-11-12-0-----------12-12--12--12--0-11-12-0-------------12-12--12--12--|
G|-------------------------------------------------------------------------|
D|-------------------------------------------------------------------------|

play chorus twice 

verse 
D|-------|
A|-------|
F|-------|
C|--9~---|
G|--9~---|
D|--7~---|

this is just the background guitar. play these as sixteenth notes (in other words: fast)
play this part twice
D|-14-12------------------------------------------------------------------------------12-|
A|------15-14-12--------------------------------------------------------------12-14-15---|
F|--------------14-12-11----------------------------------------------11-12-14-----------|
C|----------------------14-12-11------------------------------11-12-14-------------------|
G|------------------------------14-12-10--------------10-12-14---------------------------|
D|--------------------------------------14-12-10-12-14-----------------------------------|

play pre-chorus, then chorus again

breakdown 
after the slide down, just move your finger across the strings, making random harmonics
D|----------------------------------------------------------------|
A|----------------------------------------------------------------|
F|----------------------------------------------------------------|
C|-9-9-9-9\-----9-9-9-9\-----9-9-9-9\-----9-9-9-9--7-4/5----------|
G|-9-9-9-9\-----9-9-9-9\-----9-9-9-9\-----9-9-9-9--7-4/5----------|
D|-7-7-7-7\-----7-7-7-7\-----7-7-7-7\-----7-7-7-7--5-2/3----------|

play this part after guitar 2 plays through the chords once
D|----------------------------------------------|
A|-12/15-------12/15----------------------------|
F|-------11\9--------11\9----------------11~----|
C|------------------------11b12r11------9-------|
G|--------------------------------12--12--------|
D|----------------------------------------------|

play chorus 4 times

D|-----14p0-14-------14p0-14-------14p0-|-----17p0-17-------17p0-17-------17p0-|
A|--------------------------------------|--------------------------------------|
F|-0h11-------11-0h11-------11-0h11-----|-0h14-------14-0h14-------14-0h14-----|
C|--------------------------------------|--------------------------------------|
G|--------------------------------------|--------------------------------------|
D|--------------------------------------|--------------------------------------|

D|-----19p0-19-------19p0-19-------19p0-|-----22p0-22-------22p0-22-------22---|
A|--------------------------------------|--------------------------------------|
F|-0h16-------16-0h16-------16-0h16-----|-0h19-------19-0h19-------19-0h19-----|
C|--------------------------------------|--------------------------------------|
G|--------------------------------------|--------------------------------------|
D|--------------------------------------|--------------------------------------|

end on:
D|---2~----|
A|---3~----|
F|---4~----|
C|---4~----|
G|---2~----|
D|---------|

 
                          -Guitar 2-

intro (guitar 1 only)

chorus (you can figure out the chord changes)
D|-------------------------|
A|-------------------------|
F|--4----7-----------------|
C|--4----7----7----5-------|
G|--2----5----7----5-------|
D|------------5----3-------|

verse
D|---------------------------------------------------------------------|
A|-7-7-7-7-7-7-10-10---------------------------------------------------|
F|------------------9-9-9-9-9-9-11-11-7-7-7-7-7-7-7-7-6-6-6-6-6-6-6-6--|
C|---------------------------------------------------------------------|
G|---------------------------------------------------------------------|
D|---------------------------------------------------------------------|

D|-----------------------------------------------------------------------------------|
A|-7-7-7-7-7-7-10-10-----------10-10-10/12-12-12-12-12-12-12-15-15-15-14-14-14-14-14-|
F|------------------9-9-9-9-9-9------------------------------------------------------|
C|-----------------------------------------------------------------------------------|
G|-----------------------------------------------------------------------------------|
D|-----------------------------------------------------------------------------------|

D|-------------------------------------------------|
A|-12-12-12-12-12-12-12-12-15-15-15-14-14-14-14-14-|
F|-------------------------------------------------|
C|-------------------------------------------------|
G|-------------------------------------------------|
D|-------------------------------------------------|

D|----------------------------------12-12-12-12-12-|
A|-12-12-12-12-12-12-12-12-15-15-15----------------|
F|-------------------------------------------------|
C|-------------------------------------------------|
G|-------------------------------------------------|
D|-------------------------------------------------|

play chorus twice, then verse, then chorus twice again. 

breakdown
D|-------------------------------------------------------|
A|-------------------------------------------------------|
F|-------------------------------------------------------|
C|-9-9-9-9\----9-9-9-9\----9-9-9-9\----9-9-9-9-7-4/5-----|
G|-9-9-9-9\----9-9-9-9\----9-9-9-9\----9-9-9-9-7-4/5-----|
D|-7-7-7-7\----7-7-7-7\----7-7-7-7\----7-7-7-7-5-2/3-----|

play this part twice, holding out the last chord the second time through
again, im hoping you can figure out the chord progression yourself...
D|-2------2------0-------------------------------------------------------|
A|-3------3------2------0------------------------------------------------|
F|-4------2------2------0------------------------------------------------|
C|-4------0------2------0------------------------------------------------|
G|-2------0------0------2------------------------------------------------|
D|----------------------3------------------------------------------------|

play chorus 4 times

just play this chord while guitar 1 is playing the higher part
D|-------|
A|-------|
F|---4---|
C|---4---|
G|---2---|
D|-------|

end on:
D|--2~---|
A|--3~---|
F|--4~---|
C|--4~---|
G|--2~---|
D|-------|
            
Submit corrections


        Voices lessons Hard to play? Try these video lessons and learn fast Voices lessons
        
↑ Back to top | Tablatures and chords for acoustic guitar and electric guitar, ukulele, drums are parodies/interpretations of the original songs. You may use it for private study, scholarship, research or language learning purposes only