» » »

Saosin - Seven Years Bass

Artists:  A B C D E F G H I J K L M N O P Q R S T U V W X Y Z # 

Seven Years Bass

(ver. 2) Click to play this song!
Saosin
 Rating:
4/5 (4 votes)

 Seven Years lessons Tabs too difficult? Try these video lessons and learn fast
 
                +++++++++++++++++++++++
| Saosin- Seven Years |
+++++++++++++++++++++++

Drop D

Verse
"Taking on..."
1.
|---------------------------------------------|
|---------------------------------------------|
|-7-7777-777-7-7777-777-3-3333-333-3-3333-333-|
|---------------------------------------------|

"Test my arms.."
2.
|---------------------------------------------|
|---------------------------------------------|
|-7-7777-777-7-7777-777-3-3333-333-3-3333-333-|
|---------------------------------------------|

"Only push the way.."
3.
|---------------------------------------------|
|---------------------------------------------|
|-7-7777-777-7-7777-777-3-3333-333-3-3333-333-|
|---------------------------------------------|

"Gettin off my chest.."
4.
|---------------------------------------------|
|---------------------------------------------|
|-7-7777-777-7-7777-777-3-3333-333-5-5555-555-|
|---------------------------------------------|

Pre-Chorus
"I would find a way without.."
5.
|--------------------------------------|
|--------------------------------------|
|-----7~----7~-33333-33333-33333-33333-|
|--0x----0x----------------------------|

"I would find a way without you!"
6.
|--------------------------------------| Sadly, the bass
|--------------------------------------| here does not
|-----7~----7~-3~----3~----3~----3~----| do anything cool
|--0x----0x----------------------------| like the guitars and
                                          keyboard =(

Chorus
"That mistake was gold!.."
7.
|---------------------------------------------|
|---------------------------------------------|
|-----------------------5-5555-555-5-5555-555-|
|-0-0000-000-0-0000-000-----------------------|

8.
|-------------------------------|
|-------------------------------|
|-2222222222222x-3333333333333x-|
|-------------------------------|

"That was why.."
9.
|---------------------------------------------|
|---------------------------------------------|
|-----------------------5-5555-555-5-5555-555-|
|-0-0000-000-0-0000-000-----------------------|

10.
|-------------------------|
|-------------------------|
|-22222222222-33333333333-|
|-------------------------|

Verse
Pre-Chorus
Chorus

And the last part:

"Dont treat me, I'm to blame.."
11.
|-------------------------|
|-------------------------|
|-------------3333x-5555x-|
|-0000x-0000x-------------|

++++++++++++++++++++++++++++++

Lyrics:


Taking on seven years
the holy ghost had left alone
Test my arms, kick like crazy
I've been trying way too long
only push the way off to fight you
Now I'm sorry, I'm sorry, I'm not sure
Getting off my chest
the story ends

I would find a way without...
Tell him his eyes see too clear
I would find a way without you
Tell him his eyes see too clear
That mistake was gold
I know that without you
is something that I could never do
That was why staple the eyes and
seven dates for me to sell machines
and tear on

Seven years you assured me
that I'd be fine if I complied
only push the way off to fight you
Now I'm sorry, I'm sorry, I'm not sure
Getting off my chest
the story ends

I would find a way without...
Tell him his eyes see too clear
I would find a way without you
Tell him his eyes see too clear
That mistake was gold
I know that without you
is something that I could never do
That was why staple the eyes and
seven dates for me to sell machines
and tear on

Don't treat me, I'm to blame 
Sorry, I'm sorry, I'm sorry
Don't treat me like I ever accused you


++++++++++++++++++++++++++++++

+++++++++++++++++++++++++++++++++
| RaiLeff                       |
+++++++++++++++++++++++++++++++++
            
Submit corrections


        Seven Years lessons Hard to play? Try these video lessons and learn fast Seven Years lessons
        
↑ Back to top | Tablatures and chords for acoustic guitar and electric guitar, ukulele, drums are parodies/interpretations of the original songs. You may use it for private study, scholarship, research or language learning purposes only