» » »

Saosin - Mookies Last Christmas Tabs

Artists:  A B C D E F G H I J K L M N O P Q R S T U V W X Y Z # 

Mookies Last Christmas Tabs

(ver. 3) Click to play this song!
Saosin
 Rating:
4/5 (4 votes)

 Mookies Last Christmas lessons Tabs too difficult? Try these video lessons and learn fast
 
                Saosin "Mookies Last Christmas"
Tuning: D G C F A D

Q=103
 
 4/4
  Gtr I - Verse
|---------7------------------------|---------7-------------------------|
|---7-9-0---9-7-9---------/7-7-9---|---7-9-0---9-7-9---------/7-7-9----|
|-------------------8-9----------9-|-------------------8-9----------9--|
|-9---------------9-----9----------|-9---------------9-----9-----------|
|----------------------------------|-----------------------------------|
|----------------------------------|-----------------------------------|
|
| Gtr II - Verse
|-0-0-0-0-0-0-0-0-0-0-0-0--0-0-0-0-|-0-0-0-0-0-0-0-0-0-0-0-0--0-0-0-0--|
|-5-5-5-5-5-5-5-5-5-5-5-5--5-5-5-5-|-4-4-4-4-4-4-4-4-4-4-4-4--4-4-4-4--|
|----------------------------------|-----------------------------------|
|----------------------------------|-----------------------------------|
|----------------------------------|-----------------------------------|
|----------------------------------|-----------------------------------|


                                                                          4x
||----------7------------------------|---------7--------------------------||
||o---7-9-0---9-7-9---------/7-7-9---|---7-9-0---9-7-9---------/7-7-9----o||
||--------------------8-9----------9-|-------------------8-9----------9---||
||--9---------------9-----9----------|-9---------------9-----9------------||
||o----------------------------------|-----------------------------------o||
||-----------------------------------|------------------------------------||
|
|                                                                         4x
||--0-0-0-0-0-0-0-0-0-0-0-0--0-0-0-0-|-0-0-0-0-0-0-0-0-0-0-0-0--0-0-0-0---||
||o-5-5-5-5-5-5-5-5-5-5-5-5--5-5-5-5-|-4-4-4-4-4-4-4-4-4-4-4-4--4-4-4-4--o||
||-----------------------------------|------------------------------------||
||-----------------------------------|------------------------------------||
||o----------------------------------|-----------------------------------o||
||-----------------------------------|------------------------------------||


|---------7------------------------|---------7-----------------------|
|---7-9-0---9-7-9---------/7-7-9---|---7-9-0---9-7-9-----------------|
|-------------------8-9----------9-|-------------------8-9-----------|
|-9---------------9-----9----------|-9---------------9-----9-6-6-6-6-|
|----------------------------------|-------------------------4-4-4-4-|
|----------------------------------|---------------------------------|
|
|-0-0-0-0-0-0-0-0-0-0-0-0--0-0-0-0-|-0-0-0-0-0-0-0-0-0-0-0-0-0-0-0-0-|
|-5-5-5-5-5-5-5-5-5-5-5-5--5-5-5-5-|-7-7-7-7-7-7-7-7-7-4-4-4-4-4-4-4-|
|----------------------------------|---------------------------------|
|----------------------------------|---------------------------------|
|----------------------------------|---------------------------------|
|----------------------------------|---------------------------------|

Gtr I - Chorus
||----------------------------------|----------------------------------|
||o---------------------------------|----------------------------------|
||--6---6-6-6-6-6-6-6-6-6-6-6-6-6-6-|-2---2-2-2-2-2-2-2-2-2-2-2-2-2-2--|
||--6---6-6-6-6-6-6-6-6-6-6-6-6-6-6-|-2---2-2-2-2-2-2-2-2-2-2-2-2-2-2--|
||o-4---4-4-4-4-4-4-4-4-4-4-4-4-4-4-|-0---0-0-0-0-0-0-0-0-0-0-0-0-0-0--|
||----------------------------------|----------------------------------|
| Gtr II - Chorus
||----------------------------------|----------------------------------|
||o---------------------------------|----------------------------------|
||--6---6-6-6-6-6-6-6-6-6-6-6-6-6-6-|-2---2-2-2-2-2-2-2-2-2-2-2-2-2-2--|
||--6---6-6-6-6-6-6-6-6-6-6-6-6-6-6-|-2---2-2-2-2-2-2-2-2-2-2-2-2-2-2--|
||o-4---4-4-4-4-4-4-4-4-4-4-4-4-4-4-|-0---0-0-0-0-0-0-0-0-0-0-0-0-0-0--|
||----------------------------------|----------------------------------|
|
|   Gtr III - Chorus
||--0-0-0-0-0-0-0-0-0-0-0-0-0-0-0-0-|-0-0-0-0-0-0-0-0-0-0-0-0-0-0-0-0--|
||o-5-5-5-5-5-5-5-5-5-5-5-5-5-5-5-5-|-5-5-5-5-5-5-5-5-5-5-5-5-4-4-4-4--|
||----------------------------------|----------------------------------|
||----------------------------------|----------------------------------|
||o---------------------------------|----------------------------------|
||----------------------------------|----------------------------------|


  1.
|---------------------------------|----------------------------------||
|---------------------------------|-------------------------5-4-----o||
|---------------------------------|-4-4-4-4-4-4-4-4-----4-------4----||
|-2---2-2-2-2-2-2-2-2-2-2-2-2-2-2-|-4-4-4-4-4-4-4-4-4-6---6-------6--||
|-2---2-2-2-2-2-2-2-2-2-2-2-2-2-2-|-2-2-2-2-2-2-2-2-----------------o||
|-0---0-0-0-0-0-0-0-0-0-0-0-0-0-0-|----------------------------------||
| 2.
|---------------------------------|-------------------------4--------||
|---------------------------------|---------------------5-4---5-4-5-o||
|---------------------------------|-4-4-4-4-4-4-4-4---4--------------||
|-2---2-2-2-2-2-2-2-2-2-2-2-2-2-2-|-4-4-4-4-4-4-4-4-4----------------||
|-2---2-2-2-2-2-2-2-2-2-2-2-2-2-2-|-2-2-2-2-2-2-2-2-----------------o||
|-0---0-0-0-0-0-0-0-0-0-0-0-0-0-0-|----------------------------------||
| 3.
|-0-0-0-0-0-0-0-0-0-0-0-0-0-0-0-0-|-0-0-0-0-0-0-0-0-0-0-0-0-0-0-0-0--||
|-5-5-5-5-5-5-5-5-5-5-5-5-5-5-5-5-|-5-5-5-5-5-5-5-5-5-5-5-5-4-4-4-4-o||
|---------------------------------|----------------------------------||
|---------------------------------|----------------------------------||
|---------------------------------|---------------------------------o||
|---------------------------------|----------------------------------||


  2.
                                                             To Coda
|---------------------------------|---------------------------------|
|---------------------------------|---------------------------------|
|---------------------------------|-4-4-4-4-4-4-4-4-4-4-4-4-4-4-4-4-|
|-2---2-2-2-2-2-2-2-2-2-2-2-2-2-2-|-4-4-4-4-4-4-4-4-4-4-4-4-4-4-4-4-|
|-2---2-2-2-2-2-2-2-2-2-2-2-2-2-2-|-2-2-2-2-2-2-2-2-2-2-2-2-2-2-2-2-|
|-0---0-0-0-0-0-0-0-0-0-0-0-0-0-0-|---------------------------------|
|
|---------------------------------|---------------------------------|
|---------------------------------|---------------------------------|
|---------------------------------|-4-4-4-4-4-4-4-4-4-4-4-4-4-4-4-4-|
|-2---2-2-2-2-2-2-2-2-2-2-2-2-2-2-|-4-4-4-4-4-4-4-4-4-4-4-4-4-4-4-4-|
|-2---2-2-2-2-2-2-2-2-2-2-2-2-2-2-|-2-2-2-2-2-2-2-2-2-2-2-2-2-2-2-2-|
|-0---0-0-0-0-0-0-0-0-0-0-0-0-0-0-|---------------------------------|
|
|-0-0-0-0-0-0-0-0-0-0-0-0-0-0-0-0-|-0-0-0-0-0-0-0-0-0-0-0-0-0-0-0-0-|
|-5-5-5-5-5-5-5-5-5-5-5-5-5-5-5-5-|-5-5-5-5-5-5-5-5-5-5-5-5-4-4-4-4-|
|---------------------------------|---------------------------------|
|---------------------------------|---------------------------------|
|---------------------------------|---------------------------------|
|---------------------------------|---------------------------------|


                       D.S. al Coda
|---------7----------------------------|
|---7-9-0---9-7-9---------/7-7-9-------|
|-------------------8-9----------9-----|
|-9---------------9-----9--------------|
|--------------------------------------|
|--------------------------------------|
|
|-0-0-0-0-0-0-0-0-0-0-0-0--0-0-0-0-----|
|-5-5-5-5-5-5-5-5-5-5-5-5--5-5-5-5-----|
|--------------------------------------|
|--------------------------------------|
|--------------------------------------|
|--------------------------------------|
|
|--------------------------------------|
|--------------------------------------|
|--------------------------------------|
|--------------------------------------|
|--------------------------------------|
|--------------------------------------|


  &
  Gtr II
|-0-0-0-0-0-0-0-0-0-0-0-0-0-0-0-0-|-0-0-0-0-0-0-0-0-0-0-0-0-0-0-0-0-|
|-5-5-5-5-5-5-5-5-5-5-5-5-5-5-5-5-|-5-5-5-5-5-5-5-5-5-5-5-5-5-5-5-5-|
|---------------------------------|---------------------------------|
|---------------------------------|---------------------------------|
|---------------------------------|---------------------------------|
|---------------------------------|---------------------------------|


|-0-0-0-0-0-0-0-0-0-0-0-0-0-0-0-0-|-0-0-0-0-0-0-0-0-0-0-0-0-0-0-0-0-|
|-5-5-5-5-5-5-5-5-5-5-5-5-5-5-5-5-|-5-5-5-5-5-5-5-5-5-5-5-5-4-4-4-4-|
|---------------------------------|---------------------------------|
|---------------------------------|---------------------------------|
|---------------------------------|---------------------------------|
|---------------------------------|---------------------------------|


  Gtr I
|---------7------------------------|---------7------------------------|
|---7-9-0---9-7-9---------/7-7-7-7-|---7-9-0---9-7-9---------/7-7-9---|
|-------------------8-9------------|-------------------8-9----------9-|
|-9---------------9-----9----------|-9---------------9-----9----------|
|----------------------------------|----------------------------------|
|----------------------------------|----------------------------------|
|
| Gtr II
|-0-0-0-0-0-0-0-0-0-0-0-0--0-0-0-0-|-0-0-0-0-0-0-0-0-0-0-0-0--0-0-0-0-|
|-5-5-5-5-5-5-5-5-5-5-5-5--5-5-5-5-|-4-4-4-4-4-4-4-4-4-4-4-4--4-4-4-4-|
|----------------------------------|----------------------------------|
|----------------------------------|----------------------------------|
|----------------------------------|----------------------------------|
|----------------------------------|----------------------------------|


  Gtr I
|---------7------------------------|
|---7-9-0---9-7-9---------/7-7-7-7-|
|-------------------8-9------------|
|-9---------------9-----9----------|
|----------------------------------|
|----------------------------------|
|
| Gtr II
|-0-0-0-0-0-0-0-0-0-0-0-0--0-0-0-0-|
|-5-5-5-5-5-5-5-5-5-5-5-5--5-5-5-5-|
|----------------------------------|
|----------------------------------|
|----------------------------------|
|----------------------------------|


|----------7------------------------|---------------------------------|
|----7-9-0---9-7-9---------/7-7-9---|---------------------------------|
|--------------------8-9----------9-|---------------------------------|
|--9---------------9-----9----------|---------------------------------|
|-----------------------------------|---------------------------------|
|-----------------------------------|---------------------------------|
|
|                                                   <
|--0-0-0-0-0-0-0-0-0-0-0-0--0-0-0-0-|-0-0-0-0-0-0-0-0-0-0-0-0-0-0-0-0-|
|-/7-7-7-7-7-7-7-7-7-7-7-7--4-4-4-4-|-5-5-5-5-5-5-5-5-5-5-5-5-5-5-5-5-|
|-----------------------------------|---------------------------------|
|-----------------------------------|---------------------------------|
|-----------------------------------|---------------------------------|
|-----------------------------------|---------------------------------|


||----------------------------------|----------------------------------|
||o---------------------------------|----------------------------------|
||--6---6-6-6-6-6-6-6-6-6-6-6-6-6-6-|-2---2-2-2-2-2-2-2-2-2-2-2-2-2-2--|
||--6---6-6-6-6-6-6-6-6-6-6-6-6-6-6-|-2---2-2-2-2-2-2-2-2-2-2-2-2-2-2--|
||o-4---4-4-4-4-4-4-4-4-4-4-4-4-4-4-|-0---0-0-0-0-0-0-0-0-0-0-0-0-0-0--|
||----------------------------------|----------------------------------|
|
||----------------------------------|----------------------------------|
||o---------------------------------|----------------------------------|
||--6---6-6-6-6-6-6-6-6-6-6-6-6-6-6-|-2---2-2-2-2-2-2-2-2-2-2-2-2-2-2--|
||--6---6-6-6-6-6-6-6-6-6-6-6-6-6-6-|-2---2-2-2-2-2-2-2-2-2-2-2-2-2-2--|
||o-4---4-4-4-4-4-4-4-4-4-4-4-4-4-4-|-0---0-0-0-0-0-0-0-0-0-0-0-0-0-0--|
||----------------------------------|----------------------------------|
|
|   Gtr III
||--0-0-0-0-0-0-0-0-0-0-0-0-0-0-0-0-|-0-0-0-0-0-0-0-0-0-0-0-0-0-0-0-0--|
||o-5-5-5-5-5-5-5-5-5-5-5-5-5-5-5-5-|-5-5-5-5-5-5-5-5-5-5-5-5-4-4-4-4--|
||----------------------------------|----------------------------------|
||----------------------------------|----------------------------------|
||o---------------------------------|----------------------------------|
||----------------------------------|----------------------------------|


|---------------------------------|----------------------------------||
|---------------------------------|-------------------------5-4-----o||
|---------------------------------|-4-4-4-4-4-4-4-4-----4-------4----||
|-2---2-2-2-2-2-2-2-2-2-2-2-2-2-2-|-4-4-4-4-4-4-4-4-4-6---6-------6--||
|-2---2-2-2-2-2-2-2-2-2-2-2-2-2-2-|-2-2-2-2-2-2-2-2-----------------o||
|-0---0-0-0-0-0-0-0-0-0-0-0-0-0-0-|----------------------------------||
|
|---------------------------------|-------------------------4--------||
|---------------------------------|---------------------5-4---5-4-5-o||
|---------------------------------|-4-4-4-4-4-4-4-4---4--------------||
|-2---2-2-2-2-2-2-2-2-2-2-2-2-2-2-|-4-4-4-4-4-4-4-4-4----------------||
|-2---2-2-2-2-2-2-2-2-2-2-2-2-2-2-|-2-2-2-2-2-2-2-2-----------------o||
|-0---0-0-0-0-0-0-0-0-0-0-0-0-0-0-|----------------------------------||
|
|-0-0-0-0-0-0-0-0-0-0-0-0-0-0-0-0-|-0-0-0-0-0-0-0-0-0-0-0-0-0-0-0-0--||
|-5-5-5-5-5-5-5-5-5-5-5-5-5-5-5-5-|-5-5-5-5-5-5-5-5-5-5-5-5-4-4-4-4-o||
|---------------------------------|----------------------------------||
|---------------------------------|----------------------------------||
|---------------------------------|---------------------------------o||
|---------------------------------|----------------------------------||


|---------------------------------|---------------------------------|
|---------------------------------|---------------------------------|
|-6-6---6-6-6---6-6-6---6-6-6---6-|-2-2---2-2-2---2-2-2---2-2-2---2-|
|-6-6---6-6-6---6-6-6---6-6-6---6-|-2-2---2-2-2---2-2-2---2-2-2---2-|
|-4-4---4-4-4---4-4-4---4-4-4---4-|-0-0---0-0-0---0-0-0---0-0-0---0-|
|---------------------------------|---------------------------------|
|
|---------------------------------|---------------------------------|
|---------------------------------|---------------------------------|
|-6-6---6-6-6---6-6-6---6-6-6---6-|-2-2---2-2-2---2-2-2---2-2-2---2-|
|-6-6---6-6-6---6-6-6---6-6-6---6-|-2-2---2-2-2---2-2-2---2-2-2---2-|
|-4-4---4-4-4---4-4-4---4-4-4---4-|-0-0---0-0-0---0-0-0---0-0-0---0-|
|---------------------------------|---------------------------------|
|
|-0-0-0-0-0-0-0-0-0-0-0-0-0-0-0-0-|-0-0-0-0-0-0-0-0-0-0-0-0-0-0-0-0-|
|-5-5-5-5-5-5-5-5-5-5-5-5-5-5-5-5-|-5-5-5-5-5-5-5-5-5-5-5-5-4-4-4-4-|
|---------------------------------|---------------------------------|
|---------------------------------|---------------------------------|
|---------------------------------|---------------------------------|
|---------------------------------|---------------------------------|


|---------------------------------|---------------------------------|
|---------------------------------|-------------------------5-4-----|
|---------------------------------|-4-4---4-4-4---4-----4-------4---|
|-2-2---2-2-2---2-2-2---2-2-2---2-|-4-4---4-4-4---4-4-6---6-------6-|
|-2-2---2-2-2---2-2-2---2-2-2---2-|-2-2---2-2-2---2-----------------|
|-0-0---0-0-0---0-0-0---0-0-0---0-|---------------------------------|
|
|---------------------------------|-------------------------4-------|
|---------------------------------|---------------------5-4---5-4-5-|
|---------------------------------|-4-4---4-4-4---4---4-------------|
|-2-2---2-2-2---2-2-2---2-2-2---2-|-4-4---4-4-4---4-4---------------|
|-2-2---2-2-2---2-2-2---2-2-2---2-|-2-2---2-2-2---2-----------------|
|-0-0---0-0-0---0-0-0---0-0-0---0-|---------------------------------|
|
|-0-0-0-0-0-0-0-0-0-0-0-0-0-0-0-0-|-0-0-0-0-0-0-0-0-0-0-0-0-0-0-0-0-|
|-5-5-5-5-5-5-5-5-5-5-5-5-5-5-5-5-|-5-5-5-5-5-5-5-5-5-5-5-5-4-4-4-4-|
|---------------------------------|---------------------------------|
|---------------------------------|---------------------------------|
|---------------------------------|---------------------------------|
|---------------------------------|---------------------------------|


  End
|----------|------------|------------|-----*|
|----------|------------|------------|-----*|
|-6--------|------------|------------|-----*|
|-6--------|-(6)--------|------------|-----*|
|-4--------|-(4)--------|-(4)--------|-----*|
|----------|------------|------------|-----*|
|
| >
|----------|------------|------------|-----*|
|----------|------------|------------|-----*|
|-6--------|------------|------------|-----*|
|-6--------|-(6)--------|------------|-----*|
|-4--------|-(4)--------|-(4)--------|-----*|
|----------|------------|------------|-----*|
|
| >
|-0--------|------------|------------|-----*|
|-5--------|-(5)--------|-(5)--------|-----*|
|----------|------------|------------|-----*|
|----------|------------|------------|-----*|
|----------|------------|------------|-----*|
|----------|------------|------------|-----*|

Just repeat the harmonics:

  Gtr II
|-------------------|
|-------------------|
|-7-----------------|
|---7---12---12-----|
|-----7----7----7-4-|
|-------------------|
            
Submit corrections


        Mookies Last Christmas lessons Hard to play? Try these video lessons and learn fast Mookies Last Christmas lessons
        
↑ Back to top | Tablatures and chords for acoustic guitar and electric guitar, ukulele, drums are parodies/interpretations of the original songs. You may use it for private study, scholarship, research or language learning purposes only