» » »

Saosin - Let Go Control Tabs

Artists:  A B C D E F G H I J K L M N O P Q R S T U V W X Y Z # 

Let Go Control Tabs

(ver. 1) Click to play this song!
Saosin
 Rating:
4/5 (4 votes)

 Let Go Control lessons Tabs too difficult? Try these video lessons and learn fast
 
                Label: Capitol Records
Tuning (low to high): D G C F A d


d:12-------------12----12-11----12-11----------12-/14--11-------|
a:---14-12-14-------12----------------12-14---------------------|
F:--------------------------------------------------------------|
C:--------------------------------------------------------------|
G:--------------------------------------------------------------|
D:--------------------------------------------------------------|

Pick these notes in eights, listen to the song for proper timing.

Rythym:

d:----------------------------------------------------------|
a:----------------------------------------------------------|
F:6----------6----------------------------------------------|
C:6----------6---------------2--------------9-------x-x-x-x-|
G:4----------4---------------2--------------9-------x-x-x-x-|
D:---------------------------0--------------7-------x-x-x-x-|


Verse:

Guitar One

----------------------------------|----------------------------------|
----------------------------------|----------------------------------|
------------6---------------------|------------6---------------9-9-8-|
------6-----------4-----6-----4-2-|------6-----------4-----6---------|
--4-4---4-4---4-4---2-4---4-4-----|--4-4---4-4---4-4---2-4---4-------|
----------------------------------|----------------------------------|

----------------------------------|----------------------------------|
----------------------------------|----------------------------------|
------------6---------------------|------------6---------------9-8---|
------6-----------4-----6-----4-2-|------6-----------4-----6-------9-|
--0-0---0-0---0-0---0-2---0-0-----|--0-0---0-0---0-0---0-2---0-------|
----------------------------------|----------------------------------|

----------------------------------|----------------------------------|
----------------------------------|----------------------------------|
------------6---------------------|------------6---------------9-9-8-|
------6-----------4-----6-----4-2-|------6-----------4-----6---------|
--4-4---4-4---4-4---2-4---4-4-----|--4-4---4-4---4-4---2-4---4-------|
----------------------------------|----------------------------------|

----------------------------------|
----------------------------------|
------------6---------------------|
------6-----------4-----6-----4-2-|
--0-0---0-0---0-0---0-2---0-0-----|
----------------------------------|

Guitar Two (second time only)

----------------------------------|----------------------------------|
------------5-----4-----------5-4-|------------5-----4---------5-5-4-|
------4-----------------4---------|------4-----------------4---------|
----------------------------------|----------------------------------|
--4-4---4-4---4-4---4-4---4-4-----|--4-4---4-4---4-4---4-4---4-------|
----------------------------------|----------------------------------|

----------------------------------|
------------5-----4---------------|
------4-----------------4---------|
------------------------------4-2-|
--0-0---0-0---0-0---0-0---0-0-----|
----------------------------------|

Pre-Chorus:

Lead:
d:---12----12----12----12----12----12----12----12----12----|
a:16----16----16----16----16----16----16----16----16-------|
F:---------------------------------------------------------|
C:---------------------------------------------------------|
G:---------------------------------------------------------|
D:---------------------------------------------------------|

Rythym:

Second guitar does a little gallop with harmonics right before entering into Chorus:
d:----[7]----|
a:----[7]----|
F:-----------|
C:-----------|
G:-----------|
D:-----------|

Repeat Intro for chorus, only second time through rythym plays these chords:

d:--------------------|
a:--------------------|
F;6---------2----4----|
C:6----2----2----4----|
D:4----2----0----2----|
C:-----0--------------|

Verse again.
Chorus again.

Interlude:

Guitar One repeats this all throughout (picked in eights, listen for rythym)

d:----12-------------|
a:-------14-12-14----|
F:-------------------|
C:-------------------|
G:-------------------|
D:-------------------|

In the background a guitar can be heard playing, very lightly (same rythym as above guitar):


d:--------------------|
a:--------------------|
F:----9---------------|
C:------11-9--11------|
G:--------------------|
D:--------------------|

And the clean guitar:

---------------------|----------------------|---------------------|
---------------------|----------5-----------|---------------------|
----------6----------|---------------6------|----------6----------|
----------6----------|----------------------|----------6----------|
--2/-4---------------|--2/-4----------------|--2/-4---------------|
---------------------|----------------------|---------------------|

---------------------|---------------------|----------------------|
----------5----------|---------------------|----------5-----------|
----------6----------|----------6----------|---------------6------|
----------6----------|----------6----------|----------------------|
--2/-4---------------|--2/-4---------------|--2/-4----------------|
---------------------|---------------------|----------------------|

---------------------|---------------------||
---------------------|----------5----------||
----------6----------|----------6----------||
----------6----------|----------6----------||
--2/-4---------------|--2/-4---------------||
---------------------|---------------------||


Chorus two more times then is ova.  The harmonies between the guitars in the verse might 
a little off as they're dang hard to hear.  Ennnnjoy.
            
Submit corrections


        Let Go Control lessons Hard to play? Try these video lessons and learn fast Let Go Control lessons
        
↑ Back to top | Tablatures and chords for acoustic guitar and electric guitar, ukulele, drums are parodies/interpretations of the original songs. You may use it for private study, scholarship, research or language learning purposes only