» » »

Saosin - It's Far Better To Learn Tabs

Artists:  A B C D E F G H I J K L M N O P Q R S T U V W X Y Z # 

It's Far Better To Learn Tabs

(ver. 3) Click to play this song!
Saosin
 Rating:
4/5 (4 votes)

 It's Far Better To Learn lessons Tabs too difficult? Try these video lessons and learn fast
 
                "(2)
Intro
e|---------------5----5---8---    ---------------5----5----8-|
b|-----6----6-----------------    -6---66---66---------------|
g|--77---77---77---77---77----    ---7----7----7---77---77---|
d|---------------------------- or ---------------------------|
a|----------------------------    ---------------------------|
d|----------------------------    ---------------------------|

Whichever you prefer, or whichever is right.
Intro pt.2 (guitar 1)
e|--------------------------------------|
b|-------------------13p10--------------|
g|-------------------------10-----------|
d|-00-----------000---------------------|
a|-00-----------000---------------------|
d|-00-----------000---------------------|

Intro pt.2 (Guitar 2)
e|------------------17p13---------------|
b|------------------------15------------|
g|--------------------------------------|
d|-00-----------000---------------------|
a|-00-----------000---------------------|
d|-00-----------000---------------------|

Verse (Guitar 1)
e|---------------5----5---8---    ---------------5----5----8-|
b|-----6----6-----------------    -6---66---66---------------|
g|--77---77---77---77---77----    ---7----7----7---77---77---|
d|---------------------------- or ---------------------------|
a|----------------------------    ---------------------------|
d|----------------------------    ---------------------------|

Verse (Guitar 2)
e|--------------------------------------|
b|--------------------------------------|
g|-------3------5-----------------------|
d|-0-----3------5-----------------------|
a|-0-----1------3-----------------------|
d|-0------------------------------------|

Pre Chorus (Guitar 1)
e|----|-----------------------------------|
b|----|-----------------------------------|
g|----|-10101010--------------------------|
d|-00-|------------X4---------------------|
a|-00-|--8-8-8-8--------------------------|
d|-00-|-----------------------------------|

Pre Chorus (Guitar 2)
e|----|-------------------------------|
b|----|-------------------------------|
g|----|-7777--------------------------|
d|-00-|-------X4----------------------|
a|-00-|-5555--------------------------|
d|-00-|-------------------------------|

Chorus Same as Guitar 2 Verse
Verse
Pre Chorus

New Pre chorus (what would YOU call it?)
e|------------------|
b|------------------|
g|------------------|
d|--3p2p0-------0---|
a|--------0h1h3-----|
d|------------------|

Chorus

Bridge (guitar 1)
e|---------------------------|
b|---------------------------|
g|---------1010-------10-----|
d|-0000000-------0000--------|
a|-0000000--8-8--0000--8-----|
d|-0000000-------0000--------|

Bridge (Guitar 2)
e|---------------------------|
b|--13h15t18--(15h18t20)-----|
g|---------------------------|
d|---------------------------|
a|---------------------------|
d|---------------------------|

Bridge cont.
e|---------------------------------|--------------------|
b|---------------------------------|--------------------|
g|---------------------------------|-1010101010101010---|
d|-------0h2h3p2p0-0h2h3---0h2h3---|--------------------|
a|-0h1h3-----------------3---------|--8-8-8-8-8-8-8-8---|
d|---------------------------------|--------------------|
(or something like that)

Chorus
Bridge (outro)
"            
Submit corrections


        It's Far Better To Learn lessons Hard to play? Try these video lessons and learn fast It's Far Better To Learn lessons
        
↑ Back to top | Tablatures and chords for acoustic guitar and electric guitar, ukulele, drums are parodies/interpretations of the original songs. You may use it for private study, scholarship, research or language learning purposes only