» » »

Saosin - Collapse Tabs

Artists:  A B C D E F G H I J K L M N O P Q R S T U V W X Y Z # 

Collapse Tabs

(ver. 3) Click to play this song!
Saosin
 Rating:
4/5 (11 votes)

 Collapse lessons Tabs too difficult? Try these video lessons and learn fast
 
                -------------------------------------------------------------------------------
                             Collapse - Saosin
-------------------------------------------------------------------------------


Tuning: Down 1 Full Step

I Hope the moderators let this tab through finally, i have seen so many people wanting this tab. I have changed it to the correct format now, i think that was the problem :)



Intro:

( 00:00 – 00:05 )

e|------------------------------------------------------------------|
B|------------------------------------------------------------------|
G|------------------------------------------------------------------|
D|------------9---------------------9-------------------9-----------|
A|---------7-----10------7-------7----10------7------7------7-------|
E|----10-------------10-----10------------10----10------------------|  X2
Pm    -    -     -   -   -   -   -    -   -   -  -   -      -  


( 00:05 – 00:10 )

e|-----------------------------------------------------------------------|
B|-----------------------------------------------------------------------|
G|----------5-( Let it ring )-----7--------------------------------------|
D|----------5-( Let it ring )-----7--------------------------------------|
A|----------3-( Let it ring )-----5--------------------------------------|
E|-----------------------------------------------------------------------|


Verse:

( 00:10 – 00:31 )

e|-------|----------------------------------------------------------------------------------------------------------------------|
B|-12*---|--------------------------12-10----------------------12-10-------------------------------------------------------12---|
G|-------|---------------------12---------------------------12--------------------------------------------------------12-9h-----|
D|-------|-------------12-9h--------------------------12-9h-----------------12-9--------12-9--------12-9---------12-9-----------|
A|-------|-9-10----------------------------9-10-----------------------9-10--------9-10--------9-10--------9-10------------------|
E|-------|-------0-0-----------------------------0-0----------------------------------------------------------------------------|X2
Pm               - -                             - -                      

* Only Play on first time



Bridge

( 00:31 – 00:41 )

e|---------------------------------------------------------|----------------------------------------------|
B|-------------------------12-10---------------------12-10-|----------------------------------------------|
G|---------------------12------------------------12--------|----------------------------------------------|
D|-------------12-9h----------------------12-9h------------|--------9---------------9----------------9----|
A|---9-10------------------------9-10----------------------|------7----10----7----7---10-----7-----7---7--|
E|---------0-0------------------------0-0------------------|---10---------10---10---------10---10---------|                                                                                    
       ( Play this once )                                   (Play this Twice)  



Chorus

( 00:42 – 01:03 )

e|-----------------------------------------------------------------------|
B|-----------------------------------------------------------------------|
G|---5---------5---7---5--------5/7--------------------------------------|
D|---5---2-----5---7---5---2*---5/5--------------------------------------|
A|---3---2-----3---5---3---2*---3/7--------------------------------------|
E|-------0-----------------0*--------------------------------------------|

* Let it ring for a while & hold the next note for a little before the slide.
- Each note is strummed 12 times in a (DDUDDUDDUDDU) rhythm 


Verse  ( 01:03 – 01:24 )
Bridge ( 01:24 – 01:34 )
Chorus ( 01:34 – 01:55 )



Riff

( 01:55 – 02:27 )

e|-------------0-0-0-0--0-0--0-0-0-0-------------------------------------------------------------------------------------|
B|-------------5-5-5-5--3-3--5-3-5-3-------------------------------------------------------------------------------------|
G|-----------------------------------2-4hp-------------------------------------------------------------------------------|
D|-------------------------------------------------9----------------9---------------9------------------------9--7AH~-----|
A|--2-2-2-2--------------------------------------7---10-----7-----7----10----7----7---7------7-7-7-9h--7-9-7-------------|
E|--0-0-0-0----------------------------------10---------10----10----------10--10--------0-0------------------------------| x3


Chorus (02:27 – 02:48 )


Outro

( 02:48 – 03:15 )

e|----------------------------------------------------------------|
B|----------------------------------------------------------------|
G|----------------------------7-7-7-7---7--5-5---5-5--7-----------|
D|----------------------------7-7-7-7---7--5-5---5-5--7-----------|
A|--2-2-2-2---2-2-2---2-2-----5-5-5-5---5--3-3---3-3--5-------2*--|
E|--0-0-0-0---0-0-0---0-0-------------------------------------0*--| x2

* Let it ring and fade out on the second time.



| /  slide up
| \  slide down
| h  hammer-on
| p  pull-off
| ~  vibrato
| +  harmonic
| x  Mute note
            
Submit corrections


        Collapse lessons Hard to play? Try these video lessons and learn fast Collapse lessons
        
↑ Back to top | Tablatures and chords for acoustic guitar and electric guitar, ukulele, drums are parodies/interpretations of the original songs. You may use it for private study, scholarship, research or language learning purposes only