» » »

Saosin - Bury Your Head Tabs

Artists:  A B C D E F G H I J K L M N O P Q R S T U V W X Y Z # 

Bury Your Head Tabs

(ver. 2) Click to play this song!
Saosin
 Rating:
4/5 (4 votes)

 Bury Your Head lessons Tabs too difficult? Try these video lessons and learn fast
 
                (Acoustic)
i didnt find any tabs for this particular song, there is one but it was somewhat 
this is somewhat close
if you have any questions, comments, or complaints e-mail me

(exactly as written)


Saosin
Bury Your Head (acoustic)

VERSE
X2
E|--0-----0-----0----0----0------------------------------------------------|
B|--0-----0-----0----0----0------------------------------------------------|
G|--6-----6-----2----4----2------------------------------------------------|
D|--4-----6-----2----2----0------------------------------------------------|
A|--4-----4-----0----2----0------------------------------------------------|
D|--4-----X-----X----2----0------------------------------------------------|

PRE-CHORUS
E|---X-----X----|
B|---X-----X----|
G|---2-----4----|
D|---0-----2----|
A|---0-----2----|
D|---0-----2----|

E|----X-----X----X---|
B|----X-----X----X---|
G|----6-----6----4---|
D|----6-----4----2---|
A|----4-----4----2---|
D|----X-----4----2---|

CHORUS
X2
E|--0-----x---0----0----0---0---|
B|--0-----x---0----0----0---0---|
G|--6-----2---6----4----2---6---|
D|--4-----0---4----2----0---4---|
A|--4-----0---4----2----0---4---|
D|--4-----0---4----2----0---4---|

VERSE
X2
E|--0-----0-----0----0----0------------------------------------------------|
B|--0-----0-----0----0----0------------------------------------------------|
G|--6-----6-----2----4----2------------------------------------------------|
D|--4-----6-----2----2----0------------------------------------------------|
A|--4-----4-----0----2----0------------------------------------------------|
D|--4-----X-----X----2----0------------------------------------------------|

PRE-CHORUS
E|---X-----X----|
B|---X-----X----|
G|---2-----4----|
D|---0-----2----|
A|---0-----2----|
D|---0-----2----|

E|----X-----X----X---|
B|----X-----X----X---|
G|----6-----6----4---|
D|----6-----4----2---|
A|----4-----4----2---|
D|----X-----4----2---|
CHORUS
X2
E|--0-----x-----0----0----0---0---|
B|--0-----x-----0----0----0---0---|
G|--6-----2-----6----4----2---6---|
D|--4-----0-----4----2----0---4---|
A|--4-----0-----4----2----0---4---|
D|--4-----0---- 4----2----0---4---|

BREAK
E|--0---|
B|--0---|
G|--6---|
D|--4---|
A|--4---|
D|--4---|

BRIDGE
X2
E|--X----X----X----X-----X---------------------------------------------|
B|--X----X----X----X-----X---------------------------------------------|
G|--6----6----2----4-----2---------------------------------------------|
D|--4----6----2----2-----0---------------------------------------------|
A|--4----4----0----2-----0---------------------------------------------|
D|--4----X----X----2-----0---------------------------------------------|

CHORUS
X2
E|--0-----x-----0----0----0---0---|
B|--0-----x-----0----0----0---0---|
G|--6-----2-----6----4----2---6---|
D|--4-----0-----4----2----0---4---|
A|--4-----0-----4----2----0---4---|
D|--4-----0---- 4----2----0---4---|
            
Submit corrections


        Bury Your Head lessons Hard to play? Try these video lessons and learn fast Bury Your Head lessons
        
↑ Back to top | Tablatures and chords for acoustic guitar and electric guitar, ukulele, drums are parodies/interpretations of the original songs. You may use it for private study, scholarship, research or language learning purposes only