» » »

Santana - Jingo Tabs

Artists:  A B C D E F G H I J K L M N O P Q R S T U V W X Y Z # 

Jingo Tabs

(ver. 2) Click to play this song!
Santana
 Rating:
3.7/5 (22 votes)

 Jingo lessons Tabs too difficult? Try these video lessons and learn fast
 
                Tuning: EADGBe

NOTE: The song is just a vamp on B minor! [xxx777]

  Bass intro
E|----------------------|
B|----------------------|
G|----------------------|
D|----------------------|
A|-----5------5-----5---| x8
E|7-7----7-7----7-7---7-|

  
E|---12b14~-----12pbr14p10-12-10---------|---12b14-12b14~---12pbr14p10-12-10~|
B|12-----------------------------10h12~~~|12---------------------------------|
G|---------------------------------------|-----------------------------------|
D|---------------------------------------|-----------------------------------|
A|---------------------------------------|-----------------------------------|
E|---------------------------------------|-----------------------------------|

E|12-12----10---------10--------10|--------10----10b12-10-12-12|
B|------12-----12-12-----12-12----|-12-12-----12---------------|
G|--------------------------------|----------------------------|
D|--------------------------------|----------------------------|
A|--------------------------------|----------------------------|
E|--------------------------------|----------------------------|

E|---------10|----------10----------10---------------------|
B|12-12-12---|-12-12-12----12-12-12---12-10----------------|
G|-----------|------------------------------9b11-9pbr11p7--|
D|-----------|--------------------------------------------9|
A|-----------|---------------------------------------------|
E|-----------|---------------------------------------------|

E|-----------|--------------------7\|
B|-----------|--------------------7\|
G|---9b11~~~-|9pbr11p7-9-7--------7\|
D|9----------|--------------7h9~~---|
A|-----------|----------------------|
E|-----------|----------------------|


Variations of this plays under the "jingo!" section
E|7-7-x-7-7--7-7-x-7-7--7-7-x-7-7---7-7-x-7-------------|
B|7-7-x-7-7--7-7-x-7-7--7-7-x-7-7---7-7-x-7-------------|
G|7-7-x-7-7--7-7-x-7-7--7-7-x-7-7---7-7-x-7--7-9----7b--|
D|------------------------------------------------9----9|
A|------------------------------------------------------|
E|------------------------------------------------------|

Drop out for bongo/organ section

E|---12b14-12b14~-----|12pbr14p10-12-10--------|---15b17~~|12pbr14p10-----------|
B|12------------------|-----------------10h12~~|12--------|------------10h12~~~\|
G|--------------------|------------------------|----------|---------------------|
D|--------------------|------------------------|----------|---------------------|
A|--------------------|------------------------|----------|---------------------|
E|--------------------|------------------------|----------|---------------------|


E|10h12-10h12-10h12-10-12-|10p9p7-10p9p7-10p9p7-10p9p7-9h10|10p9p7-10p9p7-10p9p7-10p9p7-10p9p7|
B|------------------------|--------------------------------|----------------------------------|
G|------------------------|--------------------------------|----------------------------------|
D|------------------------|--------------------------------|----------------------------------|
A|------------------------|--------------------------------|----------------------------------|
E|------------------------|--------------------------------|----------------------------------|


E|--------------------------------------------|--------------------------------|
B|10h12-10-10h12-10-10h12-10-10h12-10-10h12-10|12-12-10--10-12-10--------------|
G|--------------------------------------------|-------------------9b11-9pbr11--|
D|--------------------------------------------|-------------------------------9|
A|--------------------------------------------|--------------------------------|
E|--------------------------------------------|--------------------------------|


E|10p9p7--------10p9p7--------10p9p7--------7----7|------------7-----------------------|
B|-------10p9p7--------10p9p7--------10p9p7-7-10--|10-7------7---10-7------------------|
G|------------------------------------------------|-----9b11----------9br11p7-9---7---7|
D|------------------------------------------------|-----------------------------9---9--|
A|------------------------------------------------|------------------------------------|
E|------------------------------------------------|------------------------------------|


E|------------------------------------|------7-------7-------7-------------|
B|-----7------7------7------7------7-7|10b12---10b12---10b12---------------|
G|9b11---9b11---9b11---9b11---9b11----|------------------------9b11-9-9p7--|
D|------------------------------------|-----------------------------------9|
A|------------------------------------|------------------------------------|
E|------------------------------------|------------------------------------|


E|----------|-------------------|7\-|
B|----------|-------------------|7\-|
G|9b11~~~---|9pbr11p7-9-7-------|7\-|
D|----------|-------------7h9~~~|---|
A|----------|-------------------|---|
E|----------|-------------------|---|


Variations of this play under the "jingo!" sections
E|7-7-x-7-7--7-7-x-7-7--7-7-x-7-7---7-7-x-7-------------|
B|7-7-x-7-7--7-7-x-7-7--7-7-x-7-7---7-7-x-7-------------|
G|7-7-x-7-7--7-7-x-7-7--7-7-x-7-7---7-7-x-7--7-9----7b--|
D|------------------------------------------------9----9|
A|------------------------------------------------------|
E|------------------------------------------------------|            
Submit corrections


        Jingo lessons Hard to play? Try these video lessons and learn fast Jingo lessons
        
↑ Back to top | Tablatures and chords for acoustic guitar and electric guitar, ukulele, drums are parodies/interpretations of the original songs. You may use it for private study, scholarship, research or language learning purposes only