» » »

Sandwich - Two Trick Pony Tabs

Artists:  A B C D E F G H I J K L M N O P Q R S T U V W X Y Z # 

Two Trick Pony Tabs

(ver. 1) Click to play this song!
Sandwich
 Rating:
4/5 (4 votes)


 Two Trick Pony lessons Tabs too difficult? Try these video lessons and learn fast
 
                INTRO
   -----------------------------------------------------------------------------------------|
 B -----------------------------------------------------------------------------------------|
 A -----------------------------------------------------------------------------------------|
 R -----------------------------------------------------------------------------------------|
 1 ----4--0-0-0-4--0-0-------4--0-0-0-4--0-0------4--0-0-0-4--0-0------4--0-0-0-4--0-0------|
   --------------------3-3-------------------3-3------------------3-3------------------12/4-|


   -------------------------------------------------------------------------------P--|
 B -------------------------------------------------------------------------------A--|
 A -------------------------------------------------------------------------------U--|
 R -------------------------------------------------------------------------------S--|
 2 ----4--0-0-0-4--0-0-------4--0-0-0-4--0-0------4--0-0-0-4--0-0------4--0-0-0-4-E--|
   --------------------3-3-------------------3-3------------------3-3-------------S--|


   STANZA 1

   -----------------------------------------------------------------------------------------|
 B -----------------------------------------------------------------------------------------|
 A -----------------------------------------------------------------------------------------|
 R -----------------------------------------------------------------------------------------|
 3 ----4--0-0-0-4--0-0-------4--0-0-0-4--0-0------4--0-0-0-4--0-0------4--0-0-0-4--0-0------|
   --------------------3-3-------------------3-3------------------3-3------------------3-3--|
    I want          to move on             Not realizing I was        moving too slow


   -------------------------------------------------------------------------------------*-0-|
 B -------------------------------------------------------------------------------------*-0-|
 A -------------------------------------------------------------------------------------*-0-|
 R -------------------------------------------------------------------------------------*-0-|
 4 ----4--0-0-0-4--0-0-------4--0-0-0-4--0-0------4--0-0-0-4--0-0------4--0-0-0-4--0-0--*-0-|
   --------------------3-3-------------------3-3------------------3-3-------------------*-0-|
Tried to               hang on     But there was nothing left for     me to hold

 **Note**
 Must be
 SYNCHRONIZED
 with the switching of
 effects/pedal/distortion.
(This style is the BEST {for me}
 especially if you're switching
 from clean tone to distorted
 sound!)

    CHORUS

   ----------------------------------------------------------------------------------------|
 B -------------5--------------------------------------------------------------------------|
 A ----------7-----------------------------------------------------------------------------|
 R ----7--7---------7-7-7-7---7-7-7-7-7-7-7-7----------------------------------------------|
 5 ----5------------5-5-5-5---5-5-5-5-5-5-5-5-------4-0-0-0-4--0-0------4-0-0-0-4--0-0-----|
   ----------------------------------------------------------------3-3-----------------3-3-|
              It's such a shame that you can't      be with me tonight
              I'm spinnin' 'round in cycles         Hope you change your mind


   ----------------------------------------------5-5-5-5-5-5-5-5---5-5-5-5-5-5-5-5--|
 B -------------5--------------------------------5-5-5-5-5-5-5-5---5-5-5-5-5-5-5-5--|
 A ----------7-----------------------------------7-7-7-7-7-7-7-7---7-7-7-7-7-7-7-7--|
 R ----7--7---------7-7-7-7---7-7-7-7-7-7-7-7----7-7-7-7-7-7-7-7---7-7-7-7-7-7-7-7--|
 6 ----5------------5-5-5-5---5-5-5-5-5-5-5-5----5-5-5-5-5-5-5-5---5-5-5-5-5-5-5-5--|
   ---------------------------------------------------------------------------------|
               Before the show is over        I look around, it's you I thought I'd find


            DO BAR 2


    STANZA 2
   (DO BAR 3, BAR 4)
 Been on standby   Not realizing I was waiting too long
 Instant replay But there was nothing I can do about it

    CHORUS


    INSTRUMENTAL

   -------------*--------------*--------------------------|
 B -------------*--------------*--------------------------|   Repeat
 A -------------*--------------*--------------------------|   Twice
 R -------------*--------------*--------------------------|
 7 ----4-0-4----*-5-[5]B-[5]RB-*---4-0-4----4-[4]B-[4]RB--|
   ----------5--*--------------*---------5----------------|
                    **HINT**
             First strike/pick/strum 5,
    Then bend (full bend, should be the sound of 7th fret) 5
             without striking it; [5]B
    Then release 5 from bend without striking it; [5]RB

    How would you know if you've done it right? It should sound like the figure below;
                  --------------------------------|
                  --------------------------------|
                  --------------------------------|
                  --------------------------------|
                  ----5-H-7-Po-5------------------|
                  --------------------------------|
Basically, you can use this in place
of the above (that is if you're too lazy to study BENDING techniques).

     v ^ v  ^  v  ^   v ^ v  ^ v ^  v  ^  v  ^
   --9-9-9------------9-9-9---------10-10-10-10--|
 B ---------10-10-10---------8-8-8---------------| Repeat
 A ----------------------------------------------| Four Times
 R ----------------------------------------------|
 8 ----------------------------------------------|
   ----------------------------------------------|


   -----------------------------------------------------------------------------------------------|
 B -------------------------------------------12B-12B---------------------------------------------|
 A -------------------------------------------14B-14B---------------------------------------------|
 R -----------------------------------------------------------------------------------------------|
 9 ----4--0-0-0-4--0-0-------4--0-0-0-4--0-0------------4--0-0-0-4--0-0------4--0-0-0-4--0-0------|
   --------------------3-3----------------------------------------------3-3------------------3-3--|


     STANZA 3

   ----------------------------------------------------------|
   ----------------------------------------------------------|
   ------NO GUITAR PART--------------------------------------|
   ----------------------------------------------------------|
   ----------------------------------------------------------|
   ----------------------------------------------------------|
   Still in denial I can't believe that you can do this to me

    --------------------------------------------------------------------------------------------------0--|
 B  --------------------------------------------------------------------------------------------------0--|
 A  -------------------------------------------------14-14-14-14---14-14-14-14---14-14-14-14---14-14--0--|
 R  --------------------------------------------------------------------------------------------------0--|
 10 -------------------------------------------------12-12-12-12---12-12-12-12---12-12-12-12---12-12--0--|
    ----3H5---3H5--3H5----3H5--3H5--3H5---------------------------------------------------------------0--|
    No lights           ahead              I've been looking forward but I could not see


    CHORUS


    DO INSTRUMENTAL


 CODA
 (DO BAR 8, EIGHT TIMES)
 I have been waiting for you all night
 Under the glow of the satellite
 I have been waiting for you all night
 Under the glow of the satellite

 I have been waiting for you all night
 Under the glow of the satellite
            
Submit corrections



        Two Trick Pony lessons Hard to play? Try these video lessons and learn fast Two Trick Pony lessons
        
↑ Back to top | Tablatures and chords for acoustic guitar and electric guitar, ukulele, drums are parodies/interpretations of the original songs. You may use it for private study, scholarship, research or language learning purposes only