» » »

Sandwich - Bakit Ang Babae Tabs

Artists:  A B C D E F G H I J K L M N O P Q R S T U V W X Y Z # 

Bakit Ang Babae Tabs

(ver. 2) Click to play this song!
Sandwich
 Rating:
4.2/5 (5 votes)
                BAKIT ANG BABAE??
==SANDWICH==
NOTES: Standard tuning lang po.. di ako sure pro ok pa rin..
AZTIG tlaga sandwich.. pls support: nARDA, <5>andwich, Chicosci, at Pedicab.. LUPET!!!
pra sau,, hndi ung lyrics ha!!! Wla lng.. mis n kta.. sna my cd kau pra sa timing.. bhala
kau kung my babaguhin kau,, sensya na mga 3x ko lang pinakinggan eh. Pki rate plz. PUP 
MESA!! Wla lng.. hehe.. Mbuhay ang indy punk techno. Lets rock!!!

Intro
e|----------12---14--12----12--14-|
B|------15--------------15--------|
G|--------------------------------| 8x
D|--------------------------------|
A|--------------------------------|
E|--------------------------------|

Verse
e|-------12(8)-14(8)-12(8)-10(8)-9(8)-7(8)—12(6)--------------------|
B|-15(8)------------------------------------------------------------|
G|------------------------------------------------------------------|
D|------------------------------------------------------------------|2x
A|------------------------------------------------------------------|
E|------------------------------------------------------------------|

Chorus
GTR 1
e|------------------------------|
B|------------------------------|
G|-------7--------6--------4----|
D|-----7---7----6---6----4---4--|
A|---5--------4--------2--------|
E|------------------------------|

e|-----------------|
B|-----------------|
G|----------9-7----|
D|-777-999--9-7----|
A|-777-999--7-5----|
E|-555-777---------|

e|--------------------------------------------|
B|--------------------------------------------|
G|-------7--------6--------4------99999999----|
D|-----7---7----6---6----4---4----99999999----|
A|---5--------4--------2----------77777777----|
E|--------------------------------------------|

GTR 2
e|------------------------------------------------------------------|
B|------------------------------------------------------------------|
G|---7-------6-------4----------------------------------------------|
D|---7-(16x)-6—(16x)-4-(16x)-777--999-------------------------------|
A|---5-------4-------2-------777--999-------------------------------|
E|---------------------------555--777-------------------------------|

e|------------------------------------------------------------------|
B|------------------------------------------------------------------|
G|-----7-------6—------4-------99999999-----------------------------|
D|-----7-(16x)-6-(16x)-4-(16x)-99999999-----------------------------|
A|-----5-------4-------2-------77777777-----------------------------|
E|------------------------------------------------------------------|

Repeat verse
Repeat chorus

ADLIB:
Repeat intro then do chords
D A D A G D/F# Bm C 2x

Repeat Chorus till fade out...

end..

Un lng po.. Tnx
            
Submit corrections

↑ Back to top | Tablatures and chords for acoustic guitar and electric guitar, ukulele, drums are parodies/interpretations of the original songs. You may use it for private study, scholarship, research or language learning purposes only