Home » S » Sander Van Doorn »

Sander Van Doorn - Guitar Track Tabs

Artists:  A B C D E F G H I J K L M N O P Q R S T U V W X Y Z # 

Guitar Track Tabs

(ver. 1) Click to play this song!
Sander Van Doorn
   Gm                          Bb
e----------------------------|---------------------------------|
B----------------------------|---------------------------------|
G---------3---------3---3/5--|---------------------------------|
D-------0---0----0----0------|--------10-----------10---10/12--|
A----------------------------|------8----8------8-----8--------|
Eb--4-4-------4--------------|--7-7----------7------------7----|

  Eb                            F
e-----------------------------|--------------------------------|
B-----------------------------|--------------------------------|
G-----------------------------|---------5----------5---5/7-----|
D---------8-----------8---8\5-|-------3---3-----3----3---------|
A-------6---6-------6---6-----|--------------------------------|
Eb--0-0-------0--0------------|--2-2---------2-----------------|            
Submit corrections

↑ Back to top | Tablatures and chords for acoustic guitar and electric guitar, ukulele, drums are parodies/interpretations of the original songs. You may use it for private study, scholarship, research or language learning purposes only