Home » S » Samuel Harfst »

Samuel Harfst - Anders Als Du Denkst Tabs

Artists:  A B C D E F G H I J K L M N O P Q R S T U V W X Y Z # 

Anders Als Du Denkst Tabs

(ver. 1) Click to play this song!
Samuel Harfst

for the correct timing, listen to the Song

Intro/Verse

e|----------------------------------------------------------------------------|
B|----------------------------------------------------------------------------|
G|-4--5--4----2--4--2----4--5--4----2--4--2-----------------------------------|
D|--------------------------0-------------------------------------------------|
A|-------------2------------------------0-------------------------------------|
E|-0--------------------------------------------------------------------------|

Chorus

e|----------------------------------------------------------------------------|
B|----------------------------------------------------------------------------|
G|-4--5--4----2--4--2----4--5--4----2--4--2-----------------------------------|
D|----------------------------------------------------------------------------|
A|-------------2-----------3--------------------------------------------------|
E|-0------------------------------------3-------------------------------------|

e|----------------------------------------------------------------------------|
B|----------------------------------------------------------------------------|
G|-4--5--4----2--4--2----4--5--4----4--3--0-----------------------------------|
D|----------------------------------------------------------------------------|
A|-------------2-----------3--------------------------------------------------|
E|-0------------------------------------3--2--0-------------------------------|

God Bless!
Wagh_Rules
            
Submit corrections

↑ Back to top | Tablatures and chords for acoustic guitar and electric guitar, ukulele, drums are parodies/interpretations of the original songs. You may use it for private study, scholarship, research or language learning purposes only