Home » S » Sammy Kershaw »

Sammy Kershaw - Matches Tabs

Artists:  A B C D E F G H I J K L M N O P Q R S T U V W X Y Z # 

Matches Tabs

(ver. 1) Click to play this song!
Sammy Kershaw
Song Title: Matches
Performer: Sammy Kershaw

This is a Great Country song, Sammy Kershaw
doesn't get the credit thats due him.  This
is the only lead guitar in it, though the acoustic
in the background sounds great also.

E------------------------------------
B------------------------------------
G----------------------6h7-----------
D-------------------7-------7h9------
A--------5--7--7/9-------------------
E--5--7------------------------------


E------------------------------------------------------
B---------------------------------10-------------------
G----------------------7h9--9/11------9/11\9---(7/9\7)-
D-------------------7----------------------------------
A--------5--7--7/9-------------------------------------
E--5--7------------------------------------------------

(7/9\7) Picked Lightly right before the vocals come in
on the intro, but picked normal when played after the chorus

The outro is just the first half of the riff
            
Submit corrections

↑ Back to top | Tablatures and chords for acoustic guitar and electric guitar, ukulele, drums are parodies/interpretations of the original songs. You may use it for private study, scholarship, research or language learning purposes only