Home » S » Sammy Kershaw »

Sammy Kershaw - Queen Of My Double Wide Trailer Tabs

Artists:  A B C D E F G H I J K L M N O P Q R S T U V W X Y Z # 

Queen Of My Double Wide Trailer Tabs

(ver. 1) Click to play this song!
Sammy Kershaw
Song Title: Queen of My Doublewide Trailer
Performer: Sammy Kershaw

This is a great song because its the heart of hick country while
still sounding respectible, honest, and pure, unlike that gimmicky cr*p
that gets put out these days by people like Tracy Byrd.

Main Line:

E-----------------------------------------
B--2-2-----------------2-2----------------
G--2-2-0---9brp7-------2-2-0----------2---
D--2-2-0---------9-7---2-2-0------0h2-----
A--0-0-2---------------0-0-2--0h2---------
E------3-------------------3--------------


E-----------------------2-2-2-------------
B--2-2------------------3-3-3-------------
G--2-2-0---9brp7--------2-2-2-------------
D--2-2-0---------9-7----------------------
A--0-0-2----------------------------------
E------3----------------------------------

brp= bend then release bend then pull out (picked only once)

I'm not positive on the chords, though it sounds good enough.
I took them from the JoeWallace post.

During Chorus:

(after "with the polyester curtains and the redwood deck")
----------------------------
----------------------------
-------7---7---9brp7--------
---7/9---9-----------9-7----
----------------------------
----------------------------

(after "dang her black heart and her pretty red neck")
----------------
----------------
-------7---7----
---7/9---9------
----------------
----------------
            
Submit corrections

↑ Back to top | Tablatures and chords for acoustic guitar and electric guitar, ukulele, drums are parodies/interpretations of the original songs. You may use it for private study, scholarship, research or language learning purposes only