Home » S » Sam Cooke »

Sam Cooke - Chain Gang Tabs

Artists:  A B C D E F G H I J K L M N O P Q R S T U V W X Y Z # 

Chain Gang Tabs

(ver. 1) Click to play this song!
Sam Cooke
 Intro
  Q=134
  G                   Em
 4/4
  Gtr I (Clean El. Gtr.)
  Q   E E +E  E E E   Q   E E +E  E E E
|-------------------|-------------------|
|----^0-------------|----^0-0-(0)-------|
|----^0-0-(0)-------|----^0-------0---0-|
|----^0-------0---0-|----^2---------2---|
|----^2---------2---|----^2-------------|
|-3-----------------|-0-----------------|
|
| Gtr II (Clean El. Gtr.)
| Q   e E  Q    e E   Q   e E  Q    e E
|-----3---------3---|-----3---------3---|
|-----3---------3---|-----5---------5---|
|-----4---------4---|-----4---------4---|
|-------------------|-------------------|
|-------------------|-------------------|
|-------------------|-------------------|


  G                   Em
  Q   E E +E  E E E   Q   E E +E  E E E
|-------------------|-------------------||
|----^0-------------|----^0-0-(0)-------||
|----^0-0-(0)-------|----^0-------0---0-||
|----^0-------0---0-|----^2---------2---||
|----^2---------2---|----^2-------------||
|-3-----------------|-0-----------------||
|
| Q   e E  Q    e E   Q   e E  Q    e E
|-----3---------3---|-----3---------3---||
|-----3---------3---|-----5---------5---||
|-----4---------4---|-----4---------4---||
|-------------------|-------------------||
|-------------------|-------------------||
|-------------------|-------------------||


   Interlude
    G                   Em
                                 |--3---|
    Q   E E +E  E E E   Q   E E +Q  Q   Q
||--------------------|---------------------|
||o---------------0---|-------0-(0)---------|
||--------0-(0)-0---0-|----^0---------------|
||-----^0-------------|----^2---------------|
||o----^2-------------|----^2-------0---2---|
||--3--^3-------------|-0-------------------|
|
|   Q   e E  Q    e E   Q   e E  Q    e   E
||------3---------3---|-----3---------3-----|
||o-----3---------3---|-----5---------5-----|
||------4---------4---|-----4---------4-----|
||--------------------|---------------------|
||o-------------------|---------------------|
||--------------------|---------------------|


  C                   D7
  Q   E E +E  E E E   Q  E E +E  E E E
|-------------------|------------------|
|-------1-(1)-------|----3-3-(3)-------|
|----^0-------0-----|----5-5-(5)-------|
|----^2-------------|----4-4-(4)-0-2-4-|
|-3--^3---------3-4-|-5--5-5-(5)-------|
|-------------------|------------------|
|
| Q   e E  Q    e E   Q  e E  Q    e E
|-----3---------3---|----5---------5---|
|-----5---------5---|----7---------7---|
|-----5---------5---|----7---------7---|
|-------------------|------------------|
|-------------------|------------------|
|-------------------|------------------|


  G                 Em
                             |--3---|
  Q   E E E E Q     Q   E E +Q  Q   Q
|-----------------|---------------------|
|-----------0-----|-------0-(0)---------|
|---------0---0---|---------------------|
|----^0-0---------|----^2---------------|
|----^2-----------|----^2-------0---2---|
|-3--^3-----------|-0-------------------|
|
| Q   e E Q   e E   Q   e E  Q    e   E
|-----3-------3---|-----3---------3-----|
|-----3-------3---|-----5---------5-----|
|-----4-------4---|-----4---------4-----|
|-----------------|---------------------|
|-----------------|---------------------|
|-----------------|---------------------|


  C                   D7
  Q   E E +E  E E E   Q  E E +E  E E E
|-------------------|------------------||
|-------1-(1)-------|----3-3-(3)-------||
|----^0-------0-----|----5-5-(5)-------||
|----^2-------------|----4-4-(4)-0-2-4-||
|-3--^3---------3-4-|-5--5-5-(5)-------||
|-------------------|------------------||
|
| Q   e E  Q    e E   Q  e E  Q    e E
|-----3---------3---|----5---------5---||
|-----5---------5---|----7---------7---||
|-----5---------5---|----7---------7---||
|-------------------|------------------||
|-------------------|------------------||
|-------------------|------------------||


 Chorus
  G                   C
  Q   E E +E  E E E   Q   E E +E  E E E
|-------------------|-------------------|
|---------------0---|-------1-(1)-------|
|-------0-(0)-0---0-|----^0-------0-----|
|----^0-------------|----^2---------2---|
|----^2-------------|-3--^3-----------3-|
|-3--^3-------------|-------------------|
|
| Q   e E  Q    e E   Q   e E  Q    e E
|-----7---------7---|-----3---------3---|
|-----8---------8---|-----5---------5---|
|-----7---------7---|-----5---------5---|
|-------------------|-------------------|
|-------------------|-------------------|
|-------------------|-------------------|


  G                   Em
  Q   E E +E  E E E   Q   E E +E  E E E
|-------------------|-------------------|
|---------------0---|-------0-(0)-------|
|-------0-(0)-0---0-|----^0-------0---0-|
|----^0-------------|----^2---------2---|
|----^2-------------|----^2-------------|
|-3--^3-------------|-0-----------------|
|
| Q   e E  Q    e E   Q   e E  Q    e E
|-----7---------7---|-----7---------7---|
|-----8---------8---|-----8---------8---|
|-----7---------7---|-----9---------9---|
|-------------------|-------------------|
|-------------------|-------------------|
|-------------------|-------------------|


                                                            1.
  G                   C                   D7                 G
  Q   E E +E  E E E   Q   E E +E  E E E   Q  E E +E  E E E   Q   E E E E Q
|-------------------|-------------------|------------------|------------------||
|-------------------|-------1-(1)-------|----3-3-(3)-------|-----------0-----o||
|-------0-(0)-------|----^0-------0-----|----5-5-(5)-------|---------0---0----||
|----^0-------0---0-|----^2-------------|----4-4-(4)-0-2-4-|----^0-0----------||
|----^2---------2---|-3--^3---------3-4-|-5--5-5-(5)-------|----^2-----------o||
|-3--^3-------------|-------------------|------------------|-3--^3------------||
|
| Q   e E  Q    e E   Q   e E  Q    e E   Q  e E  Q    e E   Q   e E Q   e E
|-----7---------7---|-----3---------3---|----7---------7---|-----7-------7----||
|-----8---------8---|-----5---------5---|----7---------7---|-----8-------8---o||
|-----7---------7---|-----5---------5---|----7---------7---|-----7-------7----||
|-------------------|-------------------|------------------|------------------||
|-------------------|-------------------|------------------|-----------------o||
|-------------------|-------------------|------------------|------------------||


                    1st Verse
  2.
  G                  G
  Q   E E E E Q      Q   E E +E  E E E
|-----------------||-------------------|
|-----------0-----||---------------0---|
|----^0---0---0---||-------0-(0)-0---0-|
|----^0-0---------||----^0-------------|
|----^2-----------||----^2-------------|
|-3--^3-----------||-3--^3-------------|
|
| Q   e E Q   e E    Q   e E  Q    e E
|-----7-------7---||-----3---------3---|
|-----8-------8---||-----3---------3---|
|-----7-------7---||-----4---------4---|
|-----------------||-------------------|
|-----------------||-------------------|
|-----------------||-------------------|


  Em                  C                   D7
  Q   E E +E  E E E   Q   E E +E  E E E   Q  E E +E  E E E
|-------------------|-------------------|------------------|
|----^0-0-(0)-------|-------1-(1)-------|----3-3-(3)-------|
|----^0-------0---0-|----^0-------0-----|----5-5-(5)-------|
|----^2---------2---|----^2-------------|----4-4-(4)-0-2-4-|
|----^2-------------|-3--^3---------3-4-|-5--5-5-(5)-------|
|-0-----------------|-------------------|------------------|
|
| Q   e E  Q    e E   Q   e E  Q    e E   Q  e E  Q    e E
|-----3---------3---|-----3---------3---|----5---------5---|
|-----5---------5---|-----5---------5---|----7---------7---|
|-----4---------4---|-----5---------5---|----7---------7---|
|-------------------|-------------------|------------------|
|-------------------|-------------------|------------------|
|-------------------|-------------------|------------------|


  G                   Em                  C                   D7
  Q   E E +E  E E E   Q   E E +E  E E E   Q   E E +E  E E E   Q  E E +E  E E E
|-------------------|-------------------|-------------------|------------------|
|---------------0---|----^0-0-(0)-------|-------1-(1)-------|----3-3-(3)-------|
|-------0-(0)-0---0-|----^0-------0---0-|----^0-------0-----|----5-5-(5)-------|
|----^0-------------|----^2---------2---|----^2-------------|----4-4-(4)-0-2-4-|
|----^2-------------|----^2-------------|-3--^3---------3-4-|-5--5-5-(5)-------|
|-3--^3-------------|-0-----------------|-------------------|------------------|
|
| Q   e E  Q    e E   Q   e E  Q    e E   Q   e E  Q    e E   Q  e E  Q    e E
|-----3---------3---|-----3---------3---|-----3---------3---|----5---------5---|
|-----3---------3---|-----5---------5---|-----5---------5---|----7---------7---|
|-----4---------4---|-----4---------4---|-----5---------5---|----7---------7---|
|-------------------|-------------------|-------------------|------------------|
|-------------------|-------------------|-------------------|------------------|
|-------------------|-------------------|-------------------|------------------|


  G                   Em
  Q   E E +E  E E E   Q   E E +E  E E E
|-------------------|-------------------|
|---------------0---|----^0-0-(0)-------|
|-------0-(0)-0---0-|----^0-------0---0-|
|----^0-------------|----^2---------2---|
|----^2-------------|----^2-------------|
|-3--^3-------------|-0-----------------|
|
| Q   e E  Q    e E   Q   e E  Q    e E
|-----3---------3---|-----3---------3---|
|-----3---------3---|-----5---------5---|
|-----4---------4---|-----4---------4---|
|-------------------|-------------------|
|-------------------|-------------------|
|-------------------|-------------------|


  C                   D7
  Q   E E +E  E E E   Q  E E +E  E E E
|-------------------|------------------||
|-------1-(1)-------|----3-3-(3)-------||
|----^0-------0-----|----5-5-(5)-------||
|----^2-------------|----4-4-(4)-0-2-4-||
|-3--^3---------3-4-|-5--5-5-(5)-------||
|-------------------|------------------||
|
| Q   e E  Q    e E   Q  e E  Q    e E
|-----3---------3---|----5---------5---||
|-----5---------5---|----7---------7---||
|-----5---------5---|----7---------7---||
|-------------------|------------------||
|-------------------|------------------||
|-------------------|------------------||


 Chorus
  $
  G                   C
  Q   E E +E  E E E   Q   E E +E  E E E
|-------------------|-------------------|
|---------------0---|-------1-(1)-------|
|-------0-(0)-0---0-|----^0-------0-----|
|----^0-------------|----^2---------2---|
|----^2-------------|-3--^3-----------3-|
|-3--^3-------------|-------------------|
|
| Q   e E  Q    e E   Q   e E  Q    e E
|-----7---------7---|-----3---------3---|
|-----8---------8---|-----5---------5---|
|-----7---------7---|-----5---------5---|
|-------------------|-------------------|
|-------------------|-------------------|
|-------------------|-------------------|


  G                   Em
  Q   E E +E  E E E   Q   E E +E  E E E
|-------------------|-------------------|
|---------------0---|-------0-(0)-------|
|-------0-(0)-0---0-|----^0-------0---0-|
|----^0-------------|----^2---------2---|
|----^2-------------|----^2-------------|
|-3--^3-------------|-0-----------------|
|
| Q   e E  Q    e E   Q   e E  Q    e E
|-----7---------7---|-----7---------7---|
|-----8---------8---|-----8---------8---|
|-----7---------7---|-----9---------9---|
|-------------------|-------------------|
|-------------------|-------------------|
|-------------------|-------------------|


                                                    To Coda
  G                   C                   D7                  G
  Q   E E +E  E E E   Q   E E +E  E E E   Q  E E +E  E E E    Q   E E E E Q
|-------------------|-------------------|-------------------|-----------------||
|-------------------|-------1-(1)-------|----3-3-(3)--------|-----------0-----||
|-------0-(0)-------|----^0-------0-----|----5-5-(5)--------|----^0---0---0---||
|----^0-------0---0-|----^2-------------|----4-4-(4)-0-2-4--|----^0-0---------||
|----^2---------2---|-3--^3---------3-4-|-5--5-5-(5)--------|----^2-----------||
|-3--^3-------------|-------------------|-------------------|-3--^3-----------||
|
| Q   e E  Q    e E   Q   e E  Q    e E   Q  e E  Q    e E    Q   e E Q   e E
|-----3---------3---|-----3---------3---|----5---------5----|-----3-------3---||
|-----3---------3---|-----5---------5---|----7---------7----|-----3-------3---||
|-----4---------4---|-----5---------5---|----7---------7----|-----4-------4---||
|-------------------|-------------------|-------------------|-----------------||
|-------------------|-------------------|-------------------|-----------------||
|-------------------|-------------------|-------------------|-----------------||


 2nd Verse
  G                   Em                  C                   D7
  Q   E E +E  E E E   Q   E E +E  E E E   Q   E E +E  E E E   Q  E E +E  E E E
|-------------------|-------------------|-------------------|------------------|
|---------------0---|----^0-0-(0)-------|-------1-(1)-------|----3-3-(3)-------|
|-------0-(0)-0---0-|----^0-------0---0-|----^0-------0-----|----5-5-(5)-------|
|----^0-------------|----^2---------2---|----^2-------------|----4-4-(4)-0-2-4-|
|----^2-------------|----^2-------------|-3--^3---------3-4-|-5--5-5-(5)-------|
|-3--^3-------------|-0-----------------|-------------------|------------------|
|
| Q   e E  Q    e E   Q   e E  Q    e E   Q   e E  Q    e E   Q  e E  Q    e E
|-----3---------3---|-----3---------3---|-----3---------3---|----5---------5---|
|-----3---------3---|-----5---------5---|-----5---------5---|----7---------7---|
|-----4---------4---|-----4---------4---|-----5---------5---|----7---------7---|
|-------------------|-------------------|-------------------|------------------|
|-------------------|-------------------|-------------------|------------------|
|-------------------|-------------------|-------------------|------------------|


  G                   Em
  Q   E E +E  E E E   Q   E E +E  E E E
|-------------------|-------------------|
|---------------0---|----^0-0-(0)-------|
|-------0-(0)-0---0-|----^0-------0---0-|
|----^0-------------|----^2---------2---|
|----^2-------------|----^2-------------|
|-3--^3-------------|-0-----------------|
|
| Q   e E  Q    e E   Q   e E  Q    e E
|-----3---------3---|-----3---------3---|
|-----3---------3---|-----5---------5---|
|-----4---------4---|-----4---------4---|
|-------------------|-------------------|
|-------------------|-------------------|
|-------------------|-------------------|


                           D.S. al Coda
  C                   D7
  Q   E E +E  E E E   Q  E E +E  E E E
|-------------------|-------------------||
|-------1-(1)-------|----3-3-(3)--------||
|----^0-------0-----|----5-5-(5)--------||
|----^2-------------|----4-4-(4)-0-2-4--||
|-3--^3---------3-4-|-5--5-5-(5)--------||
|-------------------|-------------------||
|
| Q   e E  Q    e E   Q  e E  Q    e E
|-----3---------3---|----5---------5----||
|-----5---------5---|----7---------7----||
|-----5---------5---|----7---------7----||
|-------------------|-------------------||
|-------------------|-------------------||
|-------------------|-------------------||


                     Outro
  &
  G                   G                   Em
                                                   |--3---|
  Q   E E E E Q       Q   E E +E  E E E   Q   E E +Q  Q   Q
|-----------------||--------------------|---------------------|
|-----------0-----||o---------------0---|-------0-(0)---------|
|----^0---0---0---||--------0-(0)-0---0-|----^0---------------|
|----^0-0---------||-----^0-------------|----^2---------------|
|----^2-----------||o----^2-------------|----^2-------0---2---|
|-3--^3-----------||--3--^3-------------|-0-------------------|
|
| Q   e E Q   e E     Q   e E  Q    e E   Q   e E  Q    e   E
|-----7-------7---||------3---------3---|-----3---------3-----|
|-----8-------8---||o-----3---------3---|-----5---------5-----|
|-----7-------7---||------4---------4---|-----4---------4-----|
|-----------------||--------------------|---------------------|
|-----------------||o-------------------|---------------------|
|-----------------||--------------------|---------------------|


  C                   D7
  Q   E E +E  E E E   Q  E E +E  E E E    4x
|-------------------|---------------------||
|-------1-(1)-------|----3-3-(3)---------o||
|----^0-------0-----|----5-5-(5)----------||
|----^2-------------|----4-4-(4)-0-2-4----||
|-3--^3---------3-4-|-5--5-5-(5)---------o||
|-------------------|---------------------||
|
| Q   e E  Q    e E   Q  e E  Q    e E    4x
|-----3---------3---|----5---------5------||
|-----5---------5---|----7---------7-----o||
|-----5---------5---|----7---------7------||
|-------------------|---------------------||
|-------------------|--------------------o||
|-------------------|---------------------||            
Submit corrections

↑ Back to top | Tablatures and chords for acoustic guitar and electric guitar, ukulele, drums are parodies/interpretations of the original songs. You may use it for private study, scholarship, research or language learning purposes only