Home » S » Sam Cooke »

Sam Cooke - Chain Gang Bass

Artists:  A B C D E F G H I J K L M N O P Q R S T U V W X Y Z # 

Chain Gang Bass

(ver. 1) Click to play this song!
Sam Cooke
Intro:
G|---------------------------------------------------------------------|
D|---------------------------------------------------------------------|
A|-10--10---7--7---10--10---7--7---10--10---10-7--7---7----------------|
E|-----------------------------------------------------8--8---8-10--10-|

G|-----------------------------------------------|
D|-----------------------------------------------|
A|---10--10---10-7--7---7--------------------7-9-|
E|-10--------------------8--8---8-9-10--10-10----|

Chorus:
G|----------------------------------------------------------------------|
D|----------------------------------------------------------------------|
A|-10--10----------10--10---7--7---10--10------------------10--10---7-9-|
E|----------8--8----------------------------8--8--10--10----------10----|

Interlude:
G|-----------------------------------------------------------------|
D|-----------------------------------------------------------------|
A|-10--10---10-7--7---7-------------------10--10---10-7--7---7-----|
E|---------------------8--8---8-10--10--10--------------------8--8-|

G|---------------|
D|---------------|
A|-----------7-9-|
E|-8-10--10-10---|

Chorus:
G|-----------------------------------------------------------------------|
D|-----------------------------------------------------------------------|
A|-10--10----------10--10---7--7---10--10-------------------10--10---7-9-|
E|----------8--8----------------------------8--8---10--10----------10----|

Verse:
G|---------------------------------------------------------------|
D|---------------------------------------------------------------|
A|-10--10---7--7-------------------10--10---7--7-----------------|
E|-----------------8--8---10--10-------------------8--8---10--10-|

G|----------------------------------------------|
D|----------------------------------------------|
A|-10--10---10-9-7--7-----------------------7-9-|
E|----------------------8--8---8-9-10--10-10----|

Chorus:
G|----------------------------------------------------------------------|
D|----------------------------------------------------------------------|
A|-10--10----------10--10---7--7---10--10------------------10--10---7-9-|
E|----------8--8----------------------------8--8--10--10----------10----|

Bridge:
G|-----------------------------------------------------------------|
D|-----------------------------------------------------------------|
A|-10--10---10-7--7---7-------------------10--10---10-7--7---7-----|
E|---------------------8--8---8-10--10--10--------------------8--8-|

G|----------------|
D|----------------|
A|------------7-9-|
E|-8-10--10-10----|

Chorus:
G|-----------------------------------------------------------------------|
D|-----------------------------------------------------------------------|
A|-10--10----------10--10---7--7---10--10-------------------10--10---7-9-|
E|----------8--8----------------------------8--8---10--10----------10----|

Outro:                              (Repeat To Fade/End)
G|-------------------------------------------|
D|-------------------------------------------|
A|-10--10---10-7--7---7------------------7-9-|
E|---------------------8--8---8-10--10-10----|            
Submit corrections

↑ Back to top | Tablatures and chords for acoustic guitar and electric guitar, ukulele, drums are parodies/interpretations of the original songs. You may use it for private study, scholarship, research or language learning purposes only