Home » S » Sam And Dave »

Sam And Dave - I Thank You Tabs

Artists:  A B C D E F G H I J K L M N O P Q R S T U V W X Y Z # 

I Thank You Tabs

(ver. 1) Click to play this song!
Sam And Dave
 Intro
  Q=118
  N.C.
 4/4
  Gtr I (El. Gtr. w/ light dist.)
  W          W          W          W          W          W
|----------|----------|----------|----------|----------|------||
|----------|----------|----------|----------|----------|------||
|----------|----------|----------|----------|----------|------||
|----------|----------|----------|----------|----------|------||
|----------|----------|----------|----------|----------|------||
|----------|----------|----------|----------|----------|------||


   1st - 3rd Verses
    $
    $$
    N.C.
    Q  E S S +S  S E E E   Q  E S S +S  S E E E
||-----------------------|----------------------|
||o----------------------|----------------------|
||---------------3---3---|--------------3---3---|
||-------3h5-(5)---5---5-|------3h5-(5)-------5-|
||o----------------------|----------------------|
||-----------------------|----------------------|


  Q  E S S +S  S E E E   Q  E S S +S  S E E E
|----------------------|------------------------|
|----------------------|------------------------|
|--------------3---3---|--------------3---3-----|
|------3h5-(5)---5---5-|------3h5-(5)-------5---|
|----------------------|------------------------|
|----------------------|------------------------|


  Q  E S S +S  S E E E   Q  E S S +S  S E E E
|----------------------|----------------------|
|----------------------|----------------------|
|--------------3---3---|--------------3---3---|
|------3h5-(5)---5---5-|------3h5-(5)-------5-|
|----------------------|----------------------|
|----------------------|----------------------|


           To Dbl. Coda
  Q  E S S +S  S E E E    Q  E S S +S  S E E E
|-----------------------|------------------------|
|-----------------------|------------------------|
|--------------3---3----|--------------3---3-----|
|------3h5-(5)---5---5--|------3h5-(5)-------5---|
|-----------------------|------------------------|
|-----------------------|------------------------|


  Q.   E +H       W          Q.   E +H       W
|---------------|----------|---------------|------|
|---------------|----------|---------------|------|
|---------------|----------|---------------|------|
|---------------|----------|---------------|------|
|-6----4-(4)----|----------|-6----4-(4)----|------|
|---------------|----------|---------------|------|


                                            1.
                                 To Coda
  Q.   E +H       W          Q.   E +H       W
|---------------|----------|---------------|-------||
|---------------|----------|---------------|------o||
|---------------|----------|---------------|-------||
|---------------|----------|---------------|-------||
|-6----4-(4)----|----------|-6----4-(4)----|------o||
|---------------|----------|---------------|-6-----||


  2.
D.S. al Cod&
              N.C.
  W           W          Q  q  Q  q    Q  q  Q  q
|----------||----------|-------------|----4-----4---|
|----------||----------|----4-----4--|----4-----4---|
|----------||----------|----3-----3--|--------------|
|----------||----------|-------------|--------------|
|----------||----------|-------------|--------------|
|-6--------||-6--------|-------------|--------------|


                              Interlude
                               N.C.
  Q  q  Q  q    Q  q  Q  q      Q  q  Q    q        Q   q   Q  q
|-------------|----4-----4--||-----8-------8----|-------9------9----|
|----4-----4--|----4-----4--||-----8-------8----|-------9------9----|
|----3-----3--|-------------||------------------|-------------------|
|-------------|-------------||------------------|-------------------|
|-------------|-------------||------------------|-------------------|
|-------------|-------------||------------------|-------------------|
|
| Gtr II (Horns arr. for Gtr.)
| W             W               H     E  Q    E    +Q   E E Q  E E
|-------------|-------------||------------------|-------------------|
|-------------|-------------||------------------|-------------------|
|-------------|-------------||--------8-10---10-|-(10)--8-6-8--6----|
|-------------|-------------||-10---------------|-------------------|
|-------------|-------------||------------------|-------------------|
|-------------|-------------||------------------|-------------------|


                                            D.S.S. al Dbl. Coda
   Q  q  Q    q        Q   q   Q  q      W            W
|-----8-------8----|-------9------9---|------------|---------------||
|-----8-------8----|-------9------9---|------------|---------------||
|------------------|------------------|------------|---------------||
|------------------|------------------|------------|---------------||
|------------------|------------------|------------|---------------||
|------------------|------------------|------------|---------------||
|
|  H     E  Q    E    +Q   E E Q  E E   +W           +Q   Q  H
|------------------|------------------|------------|---------------||
|------------------|------------------|------------|---------------||
|--------8-10---10-|-(10)--8-6-8--6---|------------|---------------||
|-10---------------|----------------8-|-(8)--------|-(8)-----------||
|------------------|------------------|------------|---------------||
|------------------|------------------|------------|---------------||


                          Outro
  &&
  N.C.                     N.C.
  Q  E S S +S  S E E E      H        E     +E   E  E    +E   Q  E E   E  E  E
|----------------------||----------------------11----|------------------11----|
|----------------------||o-14b16----14b16-(14)-------|--------------/11----14-|
|--------------3---3---||-------------------------13-|-(13)-11----------------|
|------3h5-(5)-------5-||----------------------------|------------------------|
|----------------------||o---------------------------|------------------------|
|----------------------||----------------------------|------------------------|


   +H      E  E  E  E    +H     E  E  E  E
|---------11----11----|--------------11-----||
|-(14)-------14----14-|-(14)------11----14-o||
|---------------------|---------------------||
|---------------------|---------------------||
|---------------------|--------------------o||
|---------------------|---------------------||            
Submit corrections

↑ Back to top | Tablatures and chords for acoustic guitar and electric guitar, ukulele, drums are parodies/interpretations of the original songs. You may use it for private study, scholarship, research or language learning purposes only