Home » S » Sam And Dave »

Sam And Dave - I Thank You Bass

Artists:  A B C D E F G H I J K L M N O P Q R S T U V W X Y Z # 

I Thank You Bass

(ver. 1) Click to play this song!
Sam And Dave
 Intro
  Q=118
 4/4
  Gtr I
  W          W          W          W          W          W
|----------|----------|----------|----------|----------|------|
|----------|----------|----------|----------|----------|------|
|----------|----------|----------|----------|----------|------|
|----------|----------|----------|----------|----------|------|


   1st - 3rd Verses
    $
    $$
    E E E E E E E E   E E E E E E E E   E E E E E E E E   E E E E E E E E
||------8-8-----8-8-|-----8-8-----8-8-|-----8-8-----8-8-|-----8-8-----8-8-|
||o-----------------|-----------------|-----------------|-----------------|
||o-6-6-----6-6-----|-6-6-----6-6-----|-6-6-----6-6-----|-6-6-----6-6-----|
||------------------|-----------------|-----------------|-----------------|


                                          To Dbl. Coda
  E E E E E E E E   E E E E E E E E   E E E E E E E E    E E E E E E E E
|-----8-8-----8-8-|-----8-8-----8-8-|-----8-8-----8-8--|-----8-8-----8-8-|
|-----------------|-----------------|------------------|-----------------|
|-6-6-----6-6-----|-6-6-----6-6-----|-6-6-----6-6------|-6-6-----6-6-----|
|-----------------|-----------------|------------------|-----------------|


  E E E E E E E E   E E E E E E E E   E E E E E E E E   E E E E E E E E
|-----------------|-----------------|-----------------|------------------|
|-----------4-6-8-|-----------4-6-8-|-----------4-6-8-|-----------4-6-8--|
|-6-6-6-6-6-------|-6-6-6-6-6-------|-6-6-6-6-6-------|-6-6-6-6-6--------|
|-----------------|-----------------|-----------------|------------------|


                                                        1.
                                               To Coda
  E E E E E E E E   E E E E E E E E   E E E E E E E E    Q  E. S E E Q
|-----------------|-----------------|------------------|-----------------||
|-----------4-6-8-|-----------4-6-8-|-----------4-6-8--|-8-------8------o||
|-6-6-6-6-6-------|-6-6-6-6-6-------|-6-6-6-6-6--------|----------------o||
|-----------------|-----------------|------------------|----6--6---6-6---||


  2.
    D.S. al Coda &
  Q  E. S E E Q     Q  E. S E E Q    H    E E E E
|----------------||----------------|--------------|
|-8-------8------||-8-------8------|--------------|
|----------------||----------------|-6----6-------|
|----6--6---6-6--||----6--6---6-6--|--------8-6-4-|


  +E  E Q  Q  Q    H    E E E E   +Q.   E Q  E E
|----------------|--------------|----------------||
|----------------|--------------|----------------||
|-------3--4--5--|-6----6-------|----------------||
|-(4)-4----------|--------8-6-4-|-(4)---4-6--6-7-||


 Interlude
  Q.   E Q.   E   +Q.   E H      Q.   E Q.   E   E S S E E H
|---------------|--------------|---------------|----------------|
|---------------|--------------|---------------|----------------|
|---------------|--------------|---------------|-4--------------|
|-8----8-8----9-|-(9)---9-9----|-8----8-8------|---1-1h2-3-4----|


                                                          Outro
                 D.S.S. al Dbl. Coda &&
  E E E E E E E E   E E E E E E E E     E E E E E E E E    Q  +E. S E E E E
|-----8-8-----8-8-|-----8-8-----8-8--||-----8-8-----8-8-||------------------|
|-----------------|------------------||-----------------||------------------|
|-6-6-----6-6-----|-6-6-----6-6------||-6-6-----6-6-----||-6--(6)-6-6-------|
|-----------------|------------------||-----------------||------------8-5-4-|


  +H     E E E E   +H     E E E E   +E  Q  Q  Q  E
|----------------|----------------|----------------|
|----------------|----------------|----------------|
|------------3-4-|-(4)----4-3-----|----------------|
|-(4)----4-6-----|------------7-6-|-(6)-6--6--6--6-|


  H    E E E E   +H     E E E E   +H     E E E E   +E  Q  Q  Q  E
|--------------|----------------|----------------|-----------------*|
|--------3-5-6-|-(6)----6-------|----------------|-----------------*|
|-6----6-------|----------------|----------------|-----------------*|
|--------------|----------7-8-9-|-(9)----9-8-7-6-|-(6)-6--6--6--6--*|            
Submit corrections

↑ Back to top | Tablatures and chords for acoustic guitar and electric guitar, ukulele, drums are parodies/interpretations of the original songs. You may use it for private study, scholarship, research or language learning purposes only