Home » S » Saliva »

Saliva - Lackluster Bass

Artists:  A B C D E F G H I J K L M N O P Q R S T U V W X Y Z # 

Lackluster Bass

(ver. 3) Click to play this song!
Saliva
Saliva - Lackluster

bass tab


5-stringed bass
G D A E B

   INTRO
G-|----------|--------------------|
D-|----------|--------------------|
A-|----------|--------------------|
E-|---3---3--|--------------3---3-|
B-|-2---2----|-22-22-22-2-2---2---|
                                                                              
   VERSO
G-|----------------|
D-|----------------|
A-|----------------|
E-|-------------3^-|
B-|-22-22-22-22----|
                                                                              
   BREAK
G-|---------------|-------------------------|
D-|---------------|-------------------------|
A-|---------------|-------------------------|
E-|-00000-22222-3-|-00000-22222-33333-55555-|
B-|---------------|-------------------------|
                                                                              
   CORO
G-|-------------------------|
D-|-------------------------|
A-|-------------------------|
E-|-99999-55555-22222-------|
B-|-------------------33333-|
                                                                              
Le mando saludos Al Diego Olivera de QB 2004 que era el larguero suplemte del equipo
de futbol profesional fc del curso pero no llegamos a la final porque el equipo de
los destructores poseidos nos hizo vencer.

doky2007
            
Submit corrections

↑ Back to top | Tablatures and chords for acoustic guitar and electric guitar, ukulele, drums are parodies/interpretations of the original songs. You may use it for private study, scholarship, research or language learning purposes only