» » »

Sales - Vow Tabs

Artists:  A B C D E F G H I J K L M N O P Q R S T U V W X Y Z # 

Vow Tabs

(ver. 2) Click to play this song!
Sales
 Rating:
1.9/5 (29 votes)

 Vow  lessons Tabs too difficult? Try these video lessons and learn fast
 
                Intro:

E|-------------------------------------|
B|------12-----------------------------|
G|--12------12----------------------2--|
D|--------------13------2--5--2--5-----|
A|------------------\3-----------------|
E|-------------------------------------|

Verses:

E|---------------------------------------------------------------|
B|-----------5--------------5------------------------------------|
G|--------5--------------5-----5-----------4---------------------|
D|--3--3--------3--3--3-----------------5----------------7-------|
A|--------------------------------3--3----------------7-----7----|
E|-------------------------------------------5--5--5-------------|

Chorus:

E|-------------------|
B|----5--------------|
G|----5--x16--4------|
D|----3-------5--x16-|
A|------------3------|
E|-------------------|

Final Chorus/Outro:

E|-------------------|
B|-------------------|
G|----5--x16---------|
D|----3-------5--x16-|
A|------------3------|
E|-------------------|

Little Outro Riff:

E|--------------------------------------------------|
B|--17--15--------------------------------------17--|
G|----------17--16--12--12--12--12--16--17--19------| some of these are tremolo notes, you'll hear 
D|--------------------------------------------------|
A|--------------------------------------------------| 
E|--------------------------------------------------|

            
Submit corrections


        Vow  lessons Hard to play? Try these video lessons and learn fast Vow  lessons
        
↑ Back to top | Tablatures and chords for acoustic guitar and electric guitar, ukulele, drums are parodies/interpretations of the original songs. You may use it for private study, scholarship, research or language learning purposes only