» » »

Sakura Gakuin - Ganbare Tabs

Artists:  A B C D E F G H I J K L M N O P Q R S T U V W X Y Z # 

Ganbare Tabs

(ver. 1) Click to play this song!
Sakura Gakuin
 Rating:
1.8/5 (28 votes)

 Ganbare  lessons Tabs too difficult? Try these video lessons and learn fast
 
                Tuning: Standard

Start chords (Clean): C#m, G#
e|---------------------------------------------------------------------------|
B|---------------------------------------------------------------------------|
G|----6----------------------------------------------------------------------|
D|----6------------6---------------------------------------------------------|
A|----4------------6---------------------------------------------------------|
E|-----------------4---------------------------------------------------------|

Intro (Distortion):                                                       Trill
e|------16-14-16---------16-14-16-----16-14--------16-17-19-17-16-14------16~~~~--------|
B|--14---------------14------------14-------17-------------------------17------------------|
G|-----------------------------------------------------------------------------------------|
D|-----------------------------------------------------------------------------------------|
A|-----------------------------------------------------------------------------------------|
E|-----------------------------------------------------------------------------------------|

e|------16-14-16---------16-14-16-----16-14--------16-17-19-17-16-14------16-14------------|
B|--14---------------14------------14-------17-------------------------17--------17--------|
G|-----------------------------------------------------------------------------------------|
D|-----------------------------------------------------------------------------------------|
A|-----------------------------------------------------------------------------------------|
E|-----------------------------------------------------------------------------------------|
 
e|---------------------------------------------------------------------------|
B|---------(High notes are optional)-----------------------------------------|
G|--4--------5--7--5--4------------------------------------------------------|
D|--4------------------------------------------------------------------------|
A|--2--------3--5--3--2------------------------------------------------------|
E|---------------------------------------------------------------------------|

Chorus (Intro)
e|--------------------------------------------------------------------------|
B|----------------------------------------8---------------------------------|
G|--------5----7----------------5----7----7---------------------------------|
D|---2----5----7----5------2----5----7----5---------------------------------|  x2
A|---2----3----5----5------2----3----5--------------------------------------|
E|---0--------------3------0------------------------------------------------|

Pre-verse:
e|---------------------------------------------------------------------------|
B|---------------------------------------------------------------------------|
G|--6--4--6\-----2---4-------------------------------------------------------|
D|--6--4--6\-----2---4-------------------------------------------------------| x2
A|--4--2--4\-----0---2-------------------------------------------------------|
E|---------------------------------------------------------------------------|

Verse:
e|---------------------------------------------------------------------------|
B|---------------------------------------------------------------------------|
G|--6--4--6\-----2---4-------------------------------------------------------|
D|--6--4--6\-----2---4-------------------------------------------------------| x2
A|--4--2--4\-----0---2-------------------------------------------------------|
E|---------------------------------------------------------------------------|

e|---------------------------------------------------------------------------|
B|---------------------------------------------------------------------------|
G|--2------------------------------------------------------------------------|
D|--2-----6------------------------------------------------------------------|
A|--0-----6------------------------------------------------------------------|
E|--------4------------------------------------------------------------------|

e|-------------------------------------------------------------------------------|
B|-------------------------------------------------------------------------------|
G|------6--4--6\-----2---4-------------------------------------------------------|
D|------6--4--6\-----2---4-------------------------------------------------------| x2
A|-2-3--4--2--4\-----0---2-------------------------------------------------------|
E|-------------------------------------------------------------------------------|

e|-------------------------------------------------------------------------------|
B|-------------------------------------------------------------------------------|
G|--6--4--6--9--8--6-------------------------------------------------------------|
D|--6--4--6--9--8--6-------------------------------------------------------------|
A|--4--2--4--7--6--4-------------------------------------------------------------|
E|-------------------------------------------------------------------------------|

Pick the notes (Clean) (Chords: A, B, C7,C#m) This is the way I do it:
e|-----------------------------------------------------------------------------------|
B|-----------------------------------------------------------------------------------|
G|-----2~~---------------4~~---------------5~~----------------6~~--------------------|
D|---2------2---2------4------4---4------4------4---4-------6------6---6-------------| x2
A|-0----------0------2----------2------3----------3-------4----------4---------------|
E|-----------------------------------------------------------------------------------|

Pre chorus (Distortion)
e|----------------------------------------------------------------------------|
B|----------------------------------------------------------------------------|
G|-------6--5----------6--8----------6--5-----/11-----------------------------|
D|--6-------------6-------------6---------------------------------------------|
A|--6----4--3-----6----4--6-----6----4--3-----/9--------3-5-3-2---------------|
E|--4-------------4-------------4---------------------------------------------|

Chorus
e|--------------------------------------------------------------------------|
B|----------------------------------------8---------------------------------|
G|--------5----7----------------5----7----7---------------------------------|
D|---2----5----7----5------2----5----7----5---------------------------------|  x4
A|---2----3----5----5------2----3----5--------------------------------------|
E|---0--------------3------0------------------------------------------------|

e|---------------------------------------------------------------------------|
B|---------------------------------------------------------------------------|
G|---5-----7-----------------------------------------------------------------|
D|---5-----7-----------------------------------------------------------------|
A|---3-----5-----------------------------------------------------------------|
E|---------------------------------------------------------------------------|

Post Chorus
e|---19-----19-20--19\17--17\15----19-20\22-20-19-17----19--17---------------|
B|------17-------------------------------------------20---------20\----------|
G|---------------------------------------------------------------------------|
D|---------------------------------------------------------------------------|
A|---------------------------------------------------------------------------|
E|---------------------------------------------------------------------------|

Pre-verse:
e|---------------------------------------------------------------------------|
B|-------------(High notes optional)-----------------------------------------|
G|--6--4--6\-----------------------------------------------------------------|
D|--6--4--6\----7-9-7-6------------------------------------------------------| x2
A|--4--2--4\-----------------------------------------------------------------|
E|--------------5-7-5-4------------------------------------------------------|

Repeat verse
Repeat Picking notes
Repeat Pre chorus
Repeat Chorus

Pre Solo
e|---------------------------------------------------------------------------|
B|---------------------------------------------------------------------------|
G|---9-----------------------------------------------------------------------|
D|---9-----------------------------------------------------------------------|
A|---7-----------------------------------------------------------------------|
E|---------------------------------------------------------------------------|

Solo
e|-------------------------------------------------15-17-18---18-17-18-17--------------|
B|------15-13-15-----13-15-16-18-16-15-16-15----15-------------------------18----------|
G|---12----------12-----------------------------------------------------------17-15-14-|
D|-------------------------------------------------------------------------------------|
A|-------------------------------------------------------------------------------------|
E|-------------------------------------------------------------------------------------|
      + (Harmonic on second 15)
e|-------------------------------------------17-18-18-17-18-20-18-17-20-18---|
B|--------18-16-15-16-15----16-15---------15---------------------------------|
G|-15-15-----------------17------------15------------------------------------|
D|---------------------------------------------------------------------------|
A|---------------------------------------------------------------------------|
E|---------------------------------------------------------------------------|

e|--17-18-19-19br20-20br19-18---17-19-20-20b22--22br20-19\-------------------|
B|---------------------------------------------------------------------------|
G|---------------------------------------------------------------------------|
D|---------------------------------------------------------------------------|
A|---------------------------------------------------------------------------|
E|---------------------------------------------------------------------------|

Post solo
e|---------------------------------------------------------------------------|
B|---------------------------------------------------------------------------|
G|-----------6-6-------------------------------------------------------------|
D|-----------6-6-------------------------------------------------------------|
A|--0--2--3--4-4-------------------------------------------------------------|
E|---------------------------------------------------------------------------|

Repeat Pre Chorus
Repeat Chorus
Repeat Post Chorus

End Chords (C, B, E) (Clean)
e|----------0----------------------------------------------------------------|
B|----------0----------------------------------------------------------------|
G|--5--4----1----------------------------------------------------------------|
D|--5--4----2----------------------------------------------------------------|
A|--3--2----2----------------------------------------------------------------|
E|----------0----------------------------------------------------------------|
            
Submit corrections


        Ganbare  lessons Hard to play? Try these video lessons and learn fast Ganbare  lessons
        
↑ Back to top | Tablatures and chords for acoustic guitar and electric guitar, ukulele, drums are parodies/interpretations of the original songs. You may use it for private study, scholarship, research or language learning purposes only