» » »

Sakura Gakuin - Friends Tabs

Artists:  A B C D E F G H I J K L M N O P Q R S T U V W X Y Z # 

Friends Tabs

(ver. 1) Click to play this song!
Sakura Gakuin
 Rating:
3/5 (28 votes)

 Friends lessons Tabs too difficult? Try these video lessons and learn fast
 
                Tuning: Standard (EADGBE)

INTRO (0:37)
Guitar 1
e|---------------------------------------------------------------------------|
B|---------------------------------------------------------------------------|
G|-3-3--3-3--3-3--3--3--3-3-3--3-3--3-3--3--3-3------------------------------|
D|-4-4--4-4--4-4--4--4--4-4-4--4-4--4-4--4--4-4------------------------------| x2
A|---------------------------------------------------------------------------|
E|---------------------------------------------------------------------------|

Guitar 2
e|-6-6--4-4--7-7--6--4--4-6-6--4-4--7-7--6--4-4------------------------------|
B|-7-7--7-7--7-7--7--7--7-7-7--7-7--7-7--7--7-7------------------------------|
G|---------------------------------------------------------------------------|
D|---------------------------------------------------------------------------| x2
A|---------------------------------------------------------------------------|
E|---------------------------------------------------------------------------|


VERSE 1
Guitar 1 (0:50)
e|---------------------------------------------------------------------------|
B|---------------------------------------------------------------------------|
G|---------------------------------------------------------------------------|
D|-4-4--4-4--4-4--4--4-4-4-3-3--3-3--3-3--3--3-3-3-4-4--4-4--4-4--4--4-4-4---|
A|---------------------------------------------------------------------------|
E|---------------------------------------------------------------------------| 

e|---------------------------------------------------------------------------|
B|---------------------------------------------------------------------------|
G|---------------------------------------------------------------------------|
D|-4-4--4-4--4-4--4--4-4-4-4-4--4-4--3-3--3--3-3-3-3-3--3-3--4-4--4--4-4-4---|
A|---------------------------------------------------------------------------|
E|---------------------------------------------------------------------------|

e|---------------------------------------------------------------------------|
B|---------------------------------------------------------------------------|
G|---------------------------------------------------------------------------|
D|-4-4--4-4--4-4--4--4-4-4-4-4--4-4-----4-3---4-3----------------------------|
A|-----------------------------------4------4-----4--------------------------|

e|---------------------------------------------------------------------------|
B|---------------------------------------------------------------------------|
G|---------------------------------------------------------------------------|
D|-4-4--4-4--4-4--4--4-4-4-3-3--3-3--3-3--3--3-3-3-4-4--4-4--4-4--4--4-4-4---|
A|---------------------------------------------------------------------------|
E|---------------------------------------------------------------------------| 

e|---------------------------------------------------------------------------|
B|---------------------------------------------------------------------------|
G|---------------------------------------------------------------------------|
D|-4-4--4-4--4-4--4--4-4-4-4-4--4-4--3-3--3--3-3-3-3-3--3-3--4-4--4--4-4-4---|
A|---------------------------------------------------------------------------|
E|---------------------------------------------------------------------------|

e|---------------------------------------------------------------------------|
B|---------------------------------------------------------------------------|
G|---------------------------------------------------------------------------|
D|-4-4--4-4--4-4--4--4-4-4-4-4--4-4------------------------------------------|
A|---------------------------------------------------------------------------|
E|-----------------------------------2--2-4-4/6-6\2--------------------------|

Guitar 2 (1:13)
e|---------------------------------------------------------------------------|
B|----7-6---7-6--------------------------------------------------------------|
G|-6------6-----6----------6-6-------6-------------6-6-------6---------------|
D|--------------------4-4-------4-4-----4-4-4-3-3-------3-3-----3-3-3--------|
A|---------------------------------------------------------------------------|
E|---------------------------------------------------------------------------|
                     |- - - - - - Palm Muted (not too muted though...) - - - 

e|---------------------------------------------------------------------------|
B|---------------------------------------------------------------------------|
G|------6-6-------6-------------6-6-------6-------------6-6-------6----------|
D|-4-4-------4-4-----4-4-4-4-4-------2-2-----2-2-2-4-4-------6-6-----6-6-6---|
A|---------------------------------------------------------------------------|
E|---------------------------------------------------------------------------|
  - - - - - - - - - - - - - - - - - - - - - - - - - - - - - - - - - - - - - -

e|---------------------------------------------------------------------------|
B|------------------------------4-4------------------------------------------|
G|------6-6-------6-----------------------6-------------6-6------------------|
D|-6-6-------4-4-----4-4-4-4-4-------6-6-----6-6-6-4-4-----------------------|
A|---------------------------------------------------------------------------|
E|-----------------------------------------------------------2--2-4-4/6-6\2--|
  - - - - - - - - - - - - - - - - - - - - - - - - - - - - -|


PRE-CHORUS 1 (1:40)
e|---------------------------------------------------------------------------|
B|---------------------------------------------------------------------------|
G|---------------------------------------------------------------------------|
D|--9-----11-----8-----13-----6-----8-----9-----11---------------------------|
A|--9-----11-----8-----13-----6-----8-----9-----11---------------------------|
E|--7-----9------6-----11-----4-----6-----7-----9----------------------------|


CHORUS 1 (1:53)
e|---------------------------------------------------------------------------|
B|---------------------------------------------------------------------------|
G|----------------------------11---------------------------------------------|
D|--4-----3-----13-----11-----11-----9-----11-----8-----13-----9-----11------|
A|--4-----3-----13-----11-----9------9-----11-----8-----13-----9-----11------|
E|--2-----1-----11-----9------9------7-----9------6-----11-----7-----9-------|
    x8    x8    x8     x8     x8     x8    x8     x8    x8    x8    x4 
 

INTERLUDE 1 (2:15)
Guitar 1
e|---------------------------------------------------------------------------|
B|---------------------------------------------------------------------------|
G|-3-3--3-3--3-3--3--3-3-----------------------------------------------------|
D|-4-4--4-4--4-4--4--4-4-----------------------------------------------------| 
A|---------------------------------------------------------------------------|
E|---------------------------------------------------------------------------|

Guitar 2
e|-6-6--4-4--7-7--6--4-4-----------------------------------------------------|
B|-7-7--7-7--7-7--7--7-7-----------------------------------------------------|
G|---------------------------------------------------------------------------|
D|---------------------------------------------------------------------------| 
A|---------------------------------------------------------------------------|
E|---------------------------------------------------------------------------|


VERSE 2
Guitar 1 (2:18)
e|---------------------------------------------------------------------------|
B|---------------------------------------------------------------------------|
G|---------------------------------------------------------------------------|
D|-4-4--4-4--4-4--4--4-4-4-3-3--3-3--3-3--3--3-3-3-4-4--4-4--4-4--4--4-4-4---|
A|---------------------------------------------------------------------------|
E|---------------------------------------------------------------------------| 

e|---------------------------------------------------------------------------|
B|---------------------------------------------------------------------------|
G|---------------------------------------------------------------------------|
D|-4-4--4-4--4-4--4--4-4-4-4-4--4-4--3-3--3--3-3-3-3-3--3-3--4-4--4--4-4-4---|
A|---------------------------------------------------------------------------|
E|---------------------------------------------------------------------------|

e|---------------------------------------------------------------------------|
B|---------------------------------------------------------------------------|
G|---------------------------------------------------------------------------|
D|-4-4--4-4--4-4--4--4-4-4-4-4--4-4------------------------------------------|
A|---------------------------------------------------------------------------|
E|-----------------------------------2--2-4-4/6-6\2--------------------------|

Guitar 2 (2:31)
e|---------------------------------------------------------------------------|
B|-------------------------------------------------------4-4-----------------|
G|------6-6-------6-------------6-6-------6-----------------------6----------|
D|-4-4-------6-6-----6-6-6-6-6-------4-4-----4-4-4-4-4-------6-6-----6-6-6---|
A|---------------------------------------------------------------------------|
E|---------------------------------------------------------------------------|
  |- - - - - - Palm Muted (not too muted though...) - - - - - - - - - - - - -

e|---------------------------------------------------------------------------|
B|---------------------------------------------------------------------------|
G|------6-6------------------------------------------------------------------|
D|-4-4-----------------------------------------------------------------------|
A|---------------------------------------------------------------------------|
E|-----------2--2-4-4/6-6\2--------------------------------------------------|
  - - - - -|


PRE-CHORUS 1 (2:43)
e|---------------------------------------------------------------------------|
B|---------------------------------------------------------------------------|
G|---------------------------------------------------------------------------|
D|--9-----11-----8-----13-----6-----8-----9-----11---------------------------|
A|--9-----11-----8-----13-----6-----8-----9-----11---------------------------|
E|--7-----9------6-----11-----4-----6-----7-----9----------------------------|


CHORUS 2 (2:57)
e|---------------------------------------------------------------------------|
B|---------------------------------------------------------------------------|
G|----------------------------11---------------------------------------------|
D|--4-----3-----13-----11-----11-----9-----11-----8-----13-----9-----11------|
A|--4-----3-----13-----11-----9------9-----11-----8-----13-----9-----11------|
E|--2-----1-----11-----9------9------7-----9------6-----11-----7-----9-------|
    x8    x8    x8     x8     x8     x8    x8     x8    x8    x8    x4 


INTERLUDE 2 (3:19)
Guitar 1
e|---------------------------------------------------------------------------|
B|-7-7--7-7--7-7--7--7-7-7-7-7--7-7--7-7--7--7--7----------------------------|
G|-x-x--x-x--x-x--x--x-x-x-x-x--x-x--x-x--x--x--x----------------------------|
D|-4-4--4-4--4-4--4--4-4-4-4-4--4-4--4-4--4--4--4----------------------------| 
A|---------------------------------------------------------------------------|
E|---------------------------------------------------------------------------|

Guitar 2
e|-6-6--4-4--7-7--6--4-4-4-6-6--4-4--7-7--6--4--4----------------------------|
B|-7-7--7-7--7-7--7--7-7-7-7-7--7-7--7-7--7--7--7----------------------------|
G|---------------------------------------------------------------------------|
D|---------------------------------------------------------------------------| 
A|---------------------------------------------------------------------------|
E|---------------------------------------------------------------------------|

BRIDGE (3:25)
Guitar 1 (Rhythm)
e|---------------------------------------------------------------------------|
B|---------------------------------------------------------------------------|
G|---------------------------------------------------------------------------|
D|--9-----11-----8-----13-----6-----8-----9-----11-----8---------------------|
A|--9-----11-----8-----13-----6-----8-----9-----11-----8---------------------|
E|--7-----9------6-----11-----4-----6-----7-----9------6---------------------|
    x8    x8     x8    x8     x8    x8    x8    x1     x1 

Guitar 2 (Solo)
e|-------------18---16-14-----------------------16-14-13---------------------|
B|----------16------------16-18--14-14\-/14--14----------14-16-11-11\--------|
G|-(11)/15-------------------------------------------------------------------|
D|---------------------------------------------------------------------------|
A|---------------------------------------------------------------------------|
E|---------------------------------------------------------------------------|
                         
e|-------------------------------11--------9~------------13-18-13~--13p11-10~|
B|-------7---------9--------7-11----11--11------------16---------------------|
G|-/4--4----4/6--6----6---8----------------------/15-------------------------|
D|---------------------------------------------------------------------------|
A|---------------------------------------------------------------------------|
E|---------------------------------------------------------------------------|
                        P.M.----|

PRE-CHORUS 3 (3:24)
e|---------------------------------------------------------------------------|
B|---------------------------------------------------------------------------|
G|---------------------------------------------------------------------------|
D|--9-----11-----8-----13-----6-----8-----9-----11---------------------------|
A|--9-----11-----8-----13-----6-----8-----9-----11---------------------------|
E|--7-----9------6-----11-----4-----6-----7-----9----------------------------|


CHORUS 3 (3:59)
e|---------------------------------------------------------------------------|
B|---------------------------------------------------------------------------|
G|----------------------------11---------------------------------------------|
D|--4-----3-----13-----11-----11-----9-----11-----8-----13-----9-----11------|
A|--4-----3-----13-----11-----9------9-----11-----8-----13-----9-----11------|
E|--2-----1-----11-----9------9------7-----9------6-----11-----7-----9-------|
    x8    x8    x8     x8     x8     x8    x8     x8    x8    x8    x8 

e|---------------------------------------------------------------------------|
B|---------------------------------------------------------------------------|
G|---------------------------------------------------------------------------|
D|--4-----13-----9-----11----------------------------------------------------|
A|--4-----13-----9-----11----------------------------------------------------|
E|--2-----11-----7-----9-----------------------------------------------------|
    x7    x8    x8     x4   


OUTRO (4:27)
Guitar 1
e|---------------------------------------------------------------------------|
B|-7-7--7-7--7-7--7--7--7-7-7--7-7--7-7--7--7-7-7----------------------------|
G|-x-x--x-x--x-x--x--x--x-x-x--x-x--x-x--x--x-x-x----------------------------|
D|-4-4--4-4--4-4--4--4--4-4-4--4-4--4-4--4--4-4-4----------------------------| 
A|---------------------------------------------------------------------------|
E|---------------------------------------------------------------------------|

e|---------------------------------------------------------------------------|
B|-7-7--7-7--7-7--7--7--7-7-7--7-7--7--7-7~----------------------------------|
G|-x-x--x-x--x-x--x--x--x-x-x--x-x--x--x-x-----------------------------------|
D|-4-4--4-4--4-4--4--4--4-4-4--4-4--4--4-4~----------------------------------| 
A|---------------------------------------------------------------------------|
E|---------------------------------------------------------------------------|

Guitar 2
e|-6-6--4-4--7-7--6--4--4-6-6--4-4--7-7--6--4-4-4----------------------------|
B|-7-7--7-7--7-7--7--7--7-7-7--7-7--7-7--7--7-7-7----------------------------|
G|---------------------------------------------------------------------------|
D|---------------------------------------------------------------------------|
A|---------------------------------------------------------------------------|
E|---------------------------------------------------------------------------|

e|-6-6--4-4--7-7--6--4--4-6-6--4-4--7--7-6~----------------------------------|
B|-7-7--7-7--7-7--7--7--7-7-7--7-7--7--7-7~----------------------------------|
G|---------------------------------------------------------------------------|
D|---------------------------------------------------------------------------|
A|---------------------------------------------------------------------------|
E|---------------------------------------------------------------------------|            
Submit corrections


        Friends lessons Hard to play? Try these video lessons and learn fast Friends lessons
        
↑ Back to top | Tablatures and chords for acoustic guitar and electric guitar, ukulele, drums are parodies/interpretations of the original songs. You may use it for private study, scholarship, research or language learning purposes only