Home » S » Saint Saviour »

Saint Saviour - Im Stranded Bass

Artists:  A B C D E F G H I J K L M N O P Q R S T U V W X Y Z # 

Im Stranded Bass

(ver. 1) Click to play this song!
Saint Saviour
[Intro]
G|-------------|----------------|-------------|----------------|
D|-------------|----------------|-------------|---------------5|
A|----6-----6-8|-8-8-8-8-8-8-8-8|----6-----6-8|-8-8-8-8-8-8-8--|
E|-6-----6-----|----------------|-6-----6-----|----------------|

G|----------------|----------------|----------------|----------------|
D|-6-6-6-6-5-5-5-5|----------------|----------------|---------------5|
A|----------------|-8-8-8-8-6-6-6-6|-8-8-8-8-8-8-8-6|-8-8-8-8-8-8-8--|
E|----------------|----------------|----------------|----------------|

G|----------------|----------------|
D|-6-6-6-6-5-5-5-5|----------------|
A|----------------|-8-8-8-8-6-6-6-6|
E|----------------|----------------|

G|-------------|----------------|-------------|----------------|
D|-------------|----------------|-------------|----------------|
A|----6-----6-8|-8-8-8-8-8-8-8-8|----6-----6-8|-8-8-8-8-8-8-8-8|
E|-6-----6-----|----------------|-6-----6-----|----------------|

[Verse 1]
G|----------------|----------------|----------------|----------------|----------------|----------------|
D|----------------|----------------|----------------|----------------|----------------|----------------|
A|---------------6|-8-8-8-8-8-8-8-8|---------------6|-8-8-8-8-8-8-8-8|---------------6|-8-8-8-8-8-8-8-8|
E|-6-6-6-6-6-6-6--|----------------|-6-6-6-6-6-6-6--|----------------|-6-6-6-6-6-6-6--|----------------|

G|----------------|----------------|
D|----------------|---------------5|
A|---------------6|-8-8-8-8-8-8-8--|
E|-6-6-6-6-6-6-6--|----------------|

G|----------------|----------------|----------------|----------------|----------------|----------------|
D|-6-6-6-6-5-5-5-5|----------------|----------------|---------------5|-6-6-6-6-5-5-5-5|----------------|
A|----------------|-8-8-8-8-6-6-6-6|-8-8-8-8-8-8-8-6|-8-8-8-8-8-8-8--|----------------|-8-8-8-8-6-6-6-6|
E|----------------|----------------|----------------|----------------|----------------|----------------|

[Interlude]
G|-------------|----------------|-------------|----------------|
D|-------------|----------------|-------------|----------------|
A|----6-----6-8|-8-8-8-8-8-8-8-8|----6-----6-8|-8-8-8-8-8-8-8-8|
E|-6-----6-----|----------------|-6-----6-----|----------------|

[Verse 2]
G|----------------|----------------|----------------|----------------|----------------|----------------|
D|----------------|----------------|----------------|----------------|----------------|----------------|
A|---------------6|-8-8-8-8-8-8-8-8|---------------6|-8-8-8-8-8-8-8-8|---------------6|-8-8-8-8-8-8-8-8|
E|-6-6-6-6-6-6-6--|----------------|-6-6-6-6-6-6-6--|----------------|-6-6-6-6-6-6-6--|----------------|

G|----------------|----------------|
D|----------------|---------------5|
A|---------------6|-8-8-8-8-8-8-8--|
E|-6-6-6-6-6-6-6--|----------------|

G|----------------|----------------|----------------|----------------|----------------|----------------|
D|-6-6-6-6-5-5-5-5|----------------|----------------|---------------5|-6-6-6-6-5-5-5-5|----------------|
A|----------------|-8-8-8-8-6-6-6-6|-8-8-8-8-8-8-8-6|-8-8-8-8-8-8-8--|----------------|-8-8-8-8-6-6-6-6|
E|----------------|----------------|----------------|----------------|----------------|----------------|

[Interlude]
G|-------------|----------------|-------------|----------------|
D|-------------|----------------|-------------|----------------|
A|----6-----6-8|-8-8-8-8-8-8-8-8|----6-----6-8|-8-8-8-8-8-8-8-8|
E|-6-----6-----|----------------|-6-----6-----|----------------|

[Chorus]
G|----------------|----------------|----------------|----------------|----------------|----------------|
D|----------------|----------------|----------------|----------------|----------------|---------------5|
A|---------------6|-8-8-8-8-8-8-8-8|---------------6|-8-8-8-8-8-8-8-8|---------------6|-8-8-8-8-8-8-8--|
E|-6-6-6-6-6-6-6--|----------------|-6-6-6-6-6-6-6--|----------------|-6-6-6-6-6-6-6--|----------------|

G|----------------|----------------|----------------|----------------|----------------|----------------|
D|-6-6-6-6-5-5-5-5|----------------|----------------|---------------5|-6-6-6-6-5-5-5-5|----------------|
A|----------------|-8-8-8-8-6-6-6-6|-8-8-8-8-8-8-8-6|-8-8-8-8-8-8-8--|----------------|-8-8-8-8-6-6-6-6|
E|----------------|----------------|----------------|----------------|----------------|----------------|

[Interlude]
G|-------------|----------------|-------------|----------------|
D|-------------|----------------|-------------|----------------|
A|----6-----6-8|-8-8-8-8-8-8-8-8|----6-----6-8|-8-8-8-8-8-8-8-8|
E|-6-----6-----|----------------|-6-----6-----|----------------|

[Verse 3]
G|----------------|----------------|----------------|----------------|----------------|----------------|
D|----------------|----------------|----------------|----------------|----------------|----------------|
A|---------------6|-8-8-8-8-8-8-8-8|---------------6|-8-8-8-8-8-8-8-8|---------------6|-8-8-8-8-8-8-8-8|
E|-6-6-6-6-6-6-6--|----------------|-6-6-6-6-6-6-6--|----------------|-6-6-6-6-6-6-6--|----------------|

G|----------------|----------------|
D|----------------|---------------5|
A|---------------6|-8-8-8-8-8-8-8--|
E|-6-6-6-6-6-6-6--|----------------|

G|----------------|----------------|----------------|----------------|----------------|----------------|
D|-6-6-6-6-5-5-5-5|----------------|----------------|---------------5|-6-6-6-6-5-5-5-5|----------------|
A|----------------|-8-8-8-8-6-6-6-6|-8-8-8-8-8-8-8-6|-8-8-8-8-8-8-8--|----------------|-8-8-8-8-6-6-6-6|
E|----------------|----------------|----------------|----------------|----------------|----------------|

[Interlude]
G|-------------|----------------|-------------|----------------|
D|-------------|----------------|-------------|----------------|
A|----6-----6-8|-8-8-8-8-8-8-8-8|----6-----6-8|-8-8-8-8-8-8-8-8|
E|-6-----6-----|----------------|-6-----6-----|----------------|

[Chorus]
G|----------------|----------------|----------------|----------------|----------------|----------------|
D|----------------|----------------|----------------|----------------|----------------|---------------5|
A|---------------6|-8-8-8-8-8-8-8-8|---------------6|-8-8-8-8-8-8-8-8|---------------6|-8-8-8-8-8-8-8--|
E|-6-6-6-6-6-6-6--|----------------|-6-6-6-6-6-6-6--|----------------|-6-6-6-6-6-6-6--|----------------|

G|----------------|----------------|----------------|----------------|----------------|----------------|
D|-6-6-6-6-5-5-5-5|----------------|----------------|---------------5|-6-6-6-6-5-5-5-5|----------------|
A|----------------|-8-8-8-8-6-6-6-6|-8-8-8-8-8-8-8-6|-8-8-8-8-8-8-8--|----------------|-8-8-8-8-6-6-6-6|
E|----------------|----------------|----------------|----------------|----------------|----------------|

[Interlude]
G|-------------|----------------|-------------|----------------|
D|-------------|----------------|-------------|----------------|
A|----6-----6-8|-8-8-8-8-8-8-8-8|----6-----6-8|-8-8-8-8-8-8-8-8|
E|-6-----6-----|----------------|-6-----6-----|----------------|

G|----------------|----------------|----------------|----------------|
D|----------------|----------------|----------------|----------------|
A|-8-8-8-8-8-8-8-6|-8-8-8-8-8-8-8-6|-8-8-8-6-8-8-8-6|-8-6-8-6-8-6-8-6|
E|----------------|----------------|----------------|----------------|

[Verse 4]
G|----------------|----------------|----------------|----------------|----------------|----------------|
D|----------------|----------------|----------------|----------------|----------------|----------------|
A|---------------6|-8-8-8-8-8-8-8-8|---------------6|-8-8-8-8-8-8-8-8|---------------6|-8-8-8-8-8-8-8-8|
E|-6-6-6-6-6-6-6--|----------------|-6-6-6-6-6-6-6--|----------------|-6-6-6-6-6-6-6--|----------------|

G|----------------|----------------|
D|----------------|---------------5|
A|---------------6|-8-8-8-8-8-8-8--|
E|-6-6-6-6-6-6-6--|----------------|

G|----------------|----------------|----------------|----------------|----------------|----------------|
D|-6-6-6-6-5-5-5-5|----------------|----------------|---------------5|-6-6-6-6-5-5-5-5|----------------|
A|----------------|-8-8-8-8-6-6-6-6|-8-8-8-8-8-8-8-6|-8-8-8-8-8-8-8--|----------------|-8-8-8-8-6-6-6-6|
E|----------------|----------------|----------------|----------------|----------------|----------------|

[Interlude]
G|-------------|----------------|-------------|----------------|
D|-------------|----------------|-------------|----------------|
A|----6-----6-8|-8-8-8-8-8-8-8-8|----6-----6-8|-8-8-8-8-8-8-8-8|
E|-6-----6-----|----------------|-6-----6-----|----------------|

[Chorus]
G|----------------|----------------|----------------|----------------|----------------|----------------| (x2)
D|----------------|----------------|----------------|----------------|----------------|----------------|
A|---------------6|-8-8-8-8-8-8-8-8|---------------6|-8-8-8-8-8-8-8-8|---------------6|-8-8-8-8-8-8-8-8|
E|-6-6-6-6-6-6-6--|----------------|-6-6-6-6-6-6-6--|----------------|-6-6-6-6-6-6-6--|----------------|

G|----------------|----------------|----------------|----------------|
D|----------------|----------------|----------------|---------------5|
A|---------------6|-8-8-8-8-8-8-8-8|---------------6|-8-8-8-8-8-8-8--|
E|-6-6-6-6-6-6-6--|----------------|-6-6-6-6-6-6-6--|----------------|

G|----------------|----------------|----------------|----------------|
D|-6-6-6-6-5-5-5-5|----------------|----------------|---------------5|
A|----------------|-8-8-8-8-6-6-6-6|-8-8-8-8-8-8-8-6|-8-8-8-8-8-8-8--|
E|----------------|----------------|----------------|----------------|

[Outro]
G|------------|------------|------------|------------|---|
D|-6--6--6--6-|-5--5--5--5-|------------|------------|---|
A|------------|------------|-8--8--8--8-|-6--6--6--6-|-8-|
E|------------|------------|------------|------------|---|            
Submit corrections

↑ Back to top | Tablatures and chords for acoustic guitar and electric guitar, ukulele, drums are parodies/interpretations of the original songs. You may use it for private study, scholarship, research or language learning purposes only