» » »

Saint Motel - Feed Me Now Tabs

Artists:  A B C D E F G H I J K L M N O P Q R S T U V W X Y Z # 

Feed Me Now Tabs

(ver. 1) Click to play this song!
Saint Motel
 Rating:
2.2/5 (30 votes)

 Feed Me Now  lessons Tabs too difficult? Try these video lessons and learn fast
 
                Tuning: Standard (EADGBe)
Listen to the song for timing 
e|----------------------|------------------|
B|----------------------|------------------|
G|----------------------|------------------|
D|----------------------|------------------|
A|---------3----------5-|-------3-------5--|
E|-1--1/5-----3--3/7----|-1--5-----3--7----|

e|----------------------|------------------|
B|----------------------|------------------|
G|----------------------|------------------|
D|----------------------|------------------|
A|---------3----------5-|-------3----------|
E|-1--1/5-----3--3/7----|-1--5----(3)------|
Then immediately to the Horn interlude
e|------------------|
B|------------------|
G|------------------|
D|--2--0------------|
A|--------3--2------|
E|------------------|
            
Submit corrections


        Feed Me Now  lessons Hard to play? Try these video lessons and learn fast Feed Me Now  lessons
        
↑ Back to top | Tablatures and chords for acoustic guitar and electric guitar, ukulele, drums are parodies/interpretations of the original songs. You may use it for private study, scholarship, research or language learning purposes only