» » »

Saint Motel - Daydream Wetdram Nightmare Tabs

Artists:  A B C D E F G H I J K L M N O P Q R S T U V W X Y Z # 

Daydream Wetdram Nightmare Tabs

(ver. 1) Click to play this song!
Saint Motel
 Rating:
4.3/5 (26 votes)

 Daydream Wetdram Nightmare lessons Tabs too difficult? Try these video lessons and learn fast
 
                [Daydream; Key: Gm/G]
[Rhythm Guitar]
[Verse]
     Gm7     Am7              Bm7      Gm7     Am7              Bm7
e|---3--3----5--5--|--5--5----7--7--|--3--3----5--5--|--5--5----7--7-------|
B|---3--3----5--5--|--5--5----7--7--|--3--3----5--5--|--5--5----7--7-------|
G|o--3--3----5--5--|--5--5----7--7--|--3--3----5--5--|--5--5----7--7------o|(x2)
D|o--3--3----5--5--|--5--5----7--7--|--3--3----5--5--|--5--5----7--7------o|
A|-----------------|----------------|----------------|---------------------|
E|-----------------|----------------|----------------|---------------------|
                      (it's in the)^   ions    ions     ions    ions, it's in the... 
Bass: (Tacet 1st time)
G|-------------------|-----------------|-----------------|-----------------|
D|o------------------|-----------------|-----------------|----------------o|
A|o------------------|-----------------|-----------------|----------------o|
E|---3--3--0-5--5--0-|-5--5--0-7--7--0-|-3--3--0-5--5--0-|-5--5--0-7--7--0-|

     G5                     F    C5
e|------------------------|-------------------------|
B|------------------------|-------------------------|
G|o-----------------------|-5-5--5=----------------o|(x2)
D|o--5--5--5-5-5-5--5-5-5-|-3-3--5=----------------o|
A|---5--5--5-5-5-5--5-5-5-|-0-0--3=-------0-1-3-2---|
E|---3--3--3-3-3-3--3-3-3-|---------0-1-3-----------|
well,I could die...if I c...b w  you

[Verse]
     Gm7     Am7              Bm7
e|---3--3----5--5--|--5--5----7--7--|--3--3----5--5--|--5--5----7--7-------|
B|---3--3----5--5--|--5--5----7--7--|--3--3----5--5--|--5--5----7--7-------|
G|---3--3----5--5--|--5--5----7--7--|--3--3----5--5--|--5--5----7--7-------|
D|---3--3----5--5--|--5--5----7--7--|--3--3----5--5--|--5--5----7--7-------|
A|-----------------|----------------|----------------|---------------------|
E|-----------------|----------------|----------------|---------------------|

[Chorus]
     G5                    F     C5
e|------------------------|------------------------|
B|------------------------|------------------------|
G|o-----------------------|-5-5--5=---------------o|(x2)
D|o--5--5--5-5-5-5--5-5-5-|-3-3--5=---------------o|
A|---5--5--5-5-5-5--5-5-5-|-0-0--3=-------0-1-3-2--|
E|---3--3--3-3-3-3--3-3-3-|---------0-1-3----------|

[Verse]
  Gm7     Am7              Bm7                  
e|--3--3----5--5--|--5--5----7--7--|--3--3----5--5--|--5--5----7--7--------|          
B|--3--3----5--5--|--5--5----7--7--|--3--3----5--5--|--5--5----7--7--------|          
G|--3--3----5--5--|--5--5----7--7--|--3--3----5--5--|--5--5----7--7--------|      
D|--3--3----5--5--|--5--5----7--7--|--3--3----5--5--|--5--5----7--7--------|          
A|----------------|----------------|----------------|----------------------|          
E|----------------|----------------|----------------|----------------------|

[Solo]
rhythm guitar:
  Gm7     Am7              Bm7                  
e|---3--3----5--5--|--5--5----7--7--|--3--3----5--5--|--5--5----7--7--------|          
B|---3--3----5--5--|--5--5----7--7--|--3--3----5--5--|--5--5----7--7--------|          
G|o--3--3----5--5--|--5--5----7--7--|--3--3----5--5--|--5--5----7--7-------o|(x2)      
D|o--3--3----5--5--|--5--5----7--7--|--3--3----5--5--|--5--5----7--7-------o|          
A|-----------------|----------------|----------------|----------------------|          
E|-----------------|----------------|----------------|----------------------|          

[Solo]
e|--12-15-18-18-18-18-18-18-|-17=-15------|---15-18-18-18-18-22--22-|-17--15------|     
B|-(17)---------------------|---------17=-|-17----------------------|---------17--|    
G|--------------------------|-------------|-------------------------|------------o|    
D|--------------------------|-------------|-------------------------|------------o|(x2)
A|--------------------------|-------------|-------------------------|-------------| 
E|--------------------------|-------------|-------------------------|-------------|

[Transition 1]
(I count 3-4 guitars layered in this part; I'm just doing 2 of them)
Guitar 1:   
   G5               F5   C5                 G5         C5                  (into next section)
e|-----------------|----------------------|----------|----------------------|------|
B|-----------------|-7--------------------|----------|--7-------------------|------|
G|-----------------|-5---5====------------|----------|--5--5===--5pb-5-5b-5-|-5b===|
D|--5=====---------|-3---5====------------|--5====---|--3--5===-------------|------|
A|--5=====---------|-----3====------------|--5====---|-----3===-------------|------|
E|--3=====---------|----------------------|--3====---|----------------------|------|

solo/lead:
e|--13pb-13pb-13r---|-15-13----------------|---------|----------------------|    
B|---------------15-|------15=-13-15-13-11-|---------|----------------------|    
G|------------------|----------------------|-12====--|10~~-12===------------|    
D|------------------|----------------------|---------|----------------------|    
A|------------------|----------------------|---------|----------------------|    
E|------------------|----------------------|---------|----------------------|    

[Wetdream; Key: B]
Guitar:
(Make major chord shape)
    B                    Db/C#        
e|----7---7---7--7--7-|------9----9----9--9--9---|
B|----7---7---7--7--7-|------9----9----9--9--9---|
G|o--(8)--------------|----(10)-----------------o|(repeat whole section)
D|o-9---9---9--9--9---|--11----11----11-11-11---o|
A|--------------------|--------------------------|
E|--------------------|--------------------------|

[Bass](Tacet 8 measures)
    B             C   Db
G|--------------------|----------------------|
D|o-------------------|---------------------o|
A|o-2---2======---2-3-|-4--4========---4-3--o|
E|--------------------|----------------------|

[Transition 2]
e|-------------------------|------------------------|--------------------------|
B|-------------------------|------------------------|--------------------------|
G|--4--4--4--4--4--4--4--4-|-6--6--6--6--6--6--6--6-|--------------------------|
D|--4--4--4--4--4--4--4--4-|-6--6--6--6--6--6--6--6-|-6--6--6--6--6--6--6--6---|
A|--2--2--2--2--2--2--2--2-|-4--4--4--4--4--4--4--4-|-6--6--6--6--6--6--6--6---|
E|-------------------------|------------------------|-4--4--4--4--4--4--4--4---|

e|-------------------------|------|//-------------------|
B|-------------------------|------|  -------------------|
G|-------------------------|--4---|  ---6=====----------|
D|--4--4--4--4--4--4--4--4-|--4---|  ---6=====----------|
A|--4--4--4--4--4--4--4--4-|--2---|  ---4=====----------|
E|--2--2--2--2--2--2--2--2-|------|  -------------------|
  rit.

[Nightmare; Key: Db]

[Guitar:]
Fingerpicking over a Db chord
  Db                              B
e|--(9)--------------------------|-9---------------------------|
B|--------9------9------9------9-|------9------9------9------9-|
G|o-----10-----10-----10-----10--|----10-----10-----10-----10--|
D|o--11------11----11-----11-----|-11-----11-----11-----11-----|
A|-------------------------------|-----------------------------|
E|-------------------------------|-----------------------------|

  Bb                             B
e|--9---------------------------|-9----------------------------|
B|-------9------9------9------9-|------9------9------9------9--|
G|-----10-----10-----10-----10--|----10-----10-----10-----10--o|{repeat whole song
D|--11------11----11-----11-----|-11-----11-----11-----11-----o|
A|------------------------------|------------------------------|
E|------------------------------|------------------------------|

[Bass]
    Db            B            Bb           B
G|---------------|------------|------------|-----------|
D|o--------------|------------|------------|----------o|
A|o--4===-4--2-1-|-2===-2-1-0-|-1===-1-0-1-|-2===-----o|
E|---------------|------------|------------|-----------|

[Outro]
(Acapella)

            
Submit corrections


        Daydream Wetdram Nightmare lessons Hard to play? Try these video lessons and learn fast Daydream Wetdram Nightmare lessons
        
↑ Back to top | Tablatures and chords for acoustic guitar and electric guitar, ukulele, drums are parodies/interpretations of the original songs. You may use it for private study, scholarship, research or language learning purposes only