» » »

Saint Asonia - Waste My Time Tabs

Artists:  A B C D E F G H I J K L M N O P Q R S T U V W X Y Z # 

Waste My Time Tabs

(ver. 1) Click to play this song!
Saint Asonia
 Rating:
2.6/5 (22 votes)

 Waste My Time  lessons Tabs too difficult? Try these video lessons and learn fast
 
                INTRO: 0:00-0:10

Guitar 1:

e|----3-3333-3-3333-0-0000-0-0000-0-0000-0/0-0000-3-3333-3--------------------------|
B|----3-3333-3-3333-0-0000-0-0000-1-1111-1/3-3333-3-3333-3--------------------------|
G|----0-0000-0-0000-0-0000-0-0000-0-0000-0/0-0000-0-0000-0--------------------------|
D|----0-0000-0-0000-2-2222-2-2222-2-2222-2/4-4444-0-0000-0--------------------------|
A|----2-2222-2-2222-2-2222-2-2222-3-3333-3/5-5555-2-2222-2--------------------------|
E|----3-3333-3-3333-0-0000-0-0000-----------------3-3333-3--------------------------|

Guitar 2:

e|----7------7----------------------------------------------------------------------|
B|------------------8------8------5------5/7------8------8--------------------------|
G|----------------------------------------------------------------------------------|
D|----------------------------------------------------------------------------------|
A|----------------------------------------------------------------------------------|
E|----------------------------------------------------------------------------------|

Verse 1: 0:11-0:32

Guitar 1:

e|----3-3333-3-3333-0-0000-0-0000-0-0000-0-0000-0-0000-0/0-0000---------------------|
B|----3-3333-3-3333-0-0000-0-0000-3-3333-3-3333-1-1111-1/3-3333---------------------|
G|----0-0000-0-0000-0-0000-0-0000-0-0000-0-0000-0-0000-0/0-0000---------------------|
D|----0-0000-0-0000-2-2222-2-2222-4-4444-4-4444-2-2222-2/4-4444---------------------|
A|----2-2222-2-2222-2-2222-2-2222-5-5555-5-5555-3-3333-3/5-5555---------------------|
E|----3-3333-3-3333-0-0000-0-0000---------------------------------------------------|

e|----3-3333-3-3333-0-0000-0-0000-0-0000-0-0000-0/0-0000-0--------------------------|
B|----3-3333-3-3333-0-0000-0-0000-1-1111-1-1111-1/3-3333-3--------------------------|
G|----0-0000-0-0000-0-0000-0-0000-0-0000-0-0000-0/0-0000-0--------------------------|
D|----0-0000-0-0000-2-2222-2-2222-2-2222-2-2222-2/4-4444-4--------------------------|
A|----2-2222-2-2222-2-2222-2-2222-3-3333-3-3333-3/5-5555-5--------------------------|
E|----3-3333-3-3333-0-0000-0-0000---------------------------------------------------|

Guitar 2:

e|----7------7----------------------------------------------------------------------|
B|------------------8------8------7------7------5--------7--------------------------|
G|----------------------------------------------------------------------------------|
D|----------------------------------------------------------------------------------|
A|----------------------------------------------------------------------------------|
E|----------------------------------------------------------------------------------|

e|----7------7----------------------------------------------------------------------|
B|------------------8------8------5------5------5/7------7--------------------------|
G|----------------------------------------------------------------------------------|
D|----------------------------------------------------------------------------------|
A|----------------------------------------------------------------------------------|
E|----------------------------------------------------------------------------------|

Chorus 0:33-0:53

Guitar 1:

e|---3-3333-3-3333-0-0000-2-2222-0-0000-2-2222-3-3333-3-----------------------------|
B|---3-3333-3-3333-0-0000-3-3333-1-1111-3-3333-3-3333-3-----------------------------|
G|---0-0000-0-0000-0-0000-2-2222-0-0000-2-2222-0-0000-0-----------------------------|  
D|---0-0000-0-0000-2-2222-0-0000-2-2222-0-0000-0-0000-0-----------------------------|    x2
A|---2-2222-0-0000-2-2222--------3-3333--------2-2222-2-----------------------------|
E|---3-3333-2-2222-0-0000----------------------3-3333-3-----------------------------|

Guitar 2:

e|--/7---7--10----/7---7--8---------------------------------------------------------|
B|-----8-------------8--------------8-8/10---8-8------------------------------------|
G|------------------------------/9-7------------------------------------------------|
D|----------------------------------------------------------------------------------|    x2 
A|----------------------------------------------------------------------------------|
E|----------------------------------------------------------------------------------|

Instrumental 0:54-1:06

Guitar 1:

e|----3-3333-3-3333-0-0000-0-0000-0-0000-0/0-0000-3-3333-3--------------------------|
B|----3-3333-3-3333-0-0000-0-0000-1-1111-1/3-3333-3-3333-3--------------------------|
G|----0-0000-0-0000-0-0000-0-0000-0-0000-0/0-0000-0-0000-0--------------------------|
D|----0-0000-0-0000-2-2222-2-2222-2-2222-2/4-4444-0-0000-0--------------------------|
A|----2-2222-2-2222-2-2222-2-2222-3-3333-3/5-5555-2-2222-2--------------------------|
E|----3-3333-3-3333-0-0000-0-0000-----------------3-3333-3--------------------------|

Guitar 2:

e|--/7---7--10----/7---7--8---------------------------------------------------------|
B|-----8-------------8-----------------8-8/10---8-8---------------------------------|
G|-------------------------------/9-7-----------------------------------------------|
D|----------------------------------------------------------------------------------|    
A|----------------------------------------------------------------------------------|
E|----------------------------------------------------------------------------------|

Guitar 1:

e|----3-3333-3-3333-0-0000-0-0000-0-0000-0/0-0000-3-3333-3--------------------------|
B|----3-3333-3-3333-0-0000-0-0000-1-1111-1/3-3333-3-3333-3--------------------------|
G|----0-0000-0-0000-0-0000-0-0000-0-0000-0/0-0000-0-0000-0--------------------------|
D|----0-0000-0-0000-2-2222-2-2222-2-2222-2/4-4444-0-0000-0--------------------------|
A|----2-2222-2-2222-2-2222-2-2222-3-3333-3/5-5555-2-2222-2--------------------------|
E|----3-3333-3-3333-0-0000-0-0000-----------------3-3333-3--------------------------|

Guitar 2:

e|----7------7----------------------------------------------------------------------|
B|------------------8------8------5------5/7------8------8--------------------------|
G|----------------------------------------------------------------------------------|
D|----------------------------------------------------------------------------------|
A|----------------------------------------------------------------------------------|
E|----------------------------------------------------------------------------------|

Verse 2: 1:07-1:27

Guitar 1:

e|----3-3333-3-3333-0-0000-0-0000-0-0000-0-0000-0-0000-0/0-0000---------------------|
B|----3-3333-3-3333-0-0000-0-0000-3-3333-3-3333-1-1111-1/3-3333---------------------|
G|----0-0000-0-0000-0-0000-0-0000-0-0000-0-0000-0-0000-0/0-0000---------------------|
D|----0-0000-0-0000-2-2222-2-2222-4-4444-4-4444-2-2222-2/4-4444---------------------|
A|----2-2222-2-2222-2-2222-2-2222-5-5555-5-5555-3-3333-3/5-5555---------------------|
E|----3-3333-3-3333-0-0000-0-0000---------------------------------------------------|

e|----3-3333-3-3333-0-0000-0-0000-0-0000-0-0000-0/0-0000-0--------------------------|
B|----3-3333-3-3333-0-0000-0-0000-1-1111-1-1111-1/3-3333-3--------------------------|
G|----0-0000-0-0000-0-0000-0-0000-0-0000-0-0000-0/0-0000-0--------------------------|
D|----0-0000-0-0000-2-2222-2-2222-2-2222-2-2222-2/4-4444-4--------------------------|
A|----2-2222-2-2222-2-2222-2-2222-3-3333-3-3333-3/5-5555-5--------------------------|
E|----3-3333-3-3333-0-0000-0-0000---------------------------------------------------|

Guitar 2:

e|----7------7----------------------------------------------------------------------|
B|------------------8------8------7------7------5--------7--------------------------|
G|----------------------------------------------------------------------------------|
D|----------------------------------------------------------------------------------|
A|----------------------------------------------------------------------------------|
E|----------------------------------------------------------------------------------|

e|----7------7----------------------------------------------------------------------|
B|------------------8------8------5------5------5/7------7--------------------------|
G|----------------------------------------------------------------------------------|
D|----------------------------------------------------------------------------------|
A|----------------------------------------------------------------------------------|
E|----------------------------------------------------------------------------------|

Chorus: 1:28-1:50

e|----3-3333-3-3333-0-0000-2-2222-0-0000-2-2222-3-3333-3----------------------------|
B|----3-3333-3-3333-0-0000-3-3333-1-1111-3-3333-3-3333-3----------------------------|
G|----0-0000-0-0000-0-0000-2-2222-0-0000-2-2222-0-0000-0----------------------------|  
D|----0-0000-0-0000-2-2222-0-0000-2-2222-0-0000-0-0000-0----------------------------|    x2
A|----2-2222-0-0000-2-2222--------3-3333--------2-2222-2----------------------------|
E|----3-3333-2-2222-0-0000----------------------3-3333-3----------------------------|

Guitar 2:

e|---/7---7--10----/7---7--8--------------------------------------------------------|
B|------8-------------8--------------8-8/10---8-8-----------------------------------|
G|-------------------------------/9-7-----------------------------------------------|
D|----------------------------------------------------------------------------------|    x2 
A|----------------------------------------------------------------------------------|
E|----------------------------------------------------------------------------------|

Breakdown: 1:51-2:17

Guitar 1:

e|----0-0000-0-0000-2-2222-2-2222-0-0000-0-0000-0-0000-0----------------------------|
B|----0-0000-0-0000-3-3333-3-3333-1-1111-1-1111-1-1111-1----------------------------|
G|----0-0000-0-0000-2-2222-2-2222-0-0000-0-0000-0-0000-0----------------------------|
D|----2-2222-2-2222-0-0000-0-0000-2-2222-2-2222-2-2222-2----------------------------|
A|----2-2222-2-2222---------------3-3333-3-3333-3-3333-3----------------------------|
E|----0-0000-0-0000-----------------------------------------------------------------|

e|----0-0000-0-0000-2-2222-2-2222-0-0000-0-0000-0-0000-0-0000-2-2222-2-2222-2-------|
B|----0-0000-0-0000-3-3333-3-3333-1-1111-1-1111-1-1111-1-1111-3-3333-3-3333-3-------|
G|----0-0000-0-0000-2-2222-2-2222-0-0000-0-0000-0-0000-0-0000-2-2222-2-2222-2-------|
D|----2-2222-2-2222-0-0000-0-0000-2-2222-2-2222-2-2222-2-2222-0-0000-0-0000-0-------|
A|----2-2222-2-2222---------------3-3333-3-3333-3-3333-3-3333-----------------------|
E|----0-0000-0-0000-----------------------------------------------------------------|

Guitar 2:

e|---/7---------10\-5-----------7---------------------------------------------------|
B|--------------------------------5-5-5-5-5-5-8-7h8p7--5----------------------------|
G|----------------------------------------------------------------------------------|
D|----------------------------------------------------------------------------------|     
A|----------------------------------------------------------------------------------|
E|----------------------------------------------------------------------------------|

e|---/7---------10\-5-----------7-----10--------------------------------------------|
B|--------------------------------5-8----------------/10------8---------------------|
G|--------------------------------------------9-------------------------------------|
D|----------------------------------------------------------------------------------|     
A|----------------------------------------------------------------------------------|
E|----------------------------------------------------------------------------------|

Chorus: 2:18-2:50

e|----3-3333-3-3333-0-0000-2-2222-0-0000-2-2222-3-3333-3----------------------------|
B|----3-3333-3-3333-0-0000-3-3333-1-1111-3-3333-3-3333-3----------------------------|
G|----0-0000-0-0000-0-0000-2-2222-0-0000-2-2222-0-0000-0----------------------------|  
D|----0-0000-0-0000-2-2222-0-0000-2-2222-0-0000-0-0000-0----------------------------|    x2
A|----2-2222-0-0000-2-2222--------3-3333--------2-2222-2----------------------------|
E|----3-3333-2-2222-0-0000----------------------3-3333-3----------------------------|

Guitar 2:

e|---/7---7--10----/7---7--8--------------------------------------------------------|
B|------8-------------8--------------8-8/10---8-8-----------------------------------|
G|-------------------------------/9-7-----------------------------------------------|
D|----------------------------------------------------------------------------------|    x2 
A|----------------------------------------------------------------------------------|
E|----------------------------------------------------------------------------------|

Outro: 2:51-3:07

Guitar 1: 

e|----3-3333-3-3333-0-0000-2-2222-0-0000-2-2222-3-3333-3-3333-3-3333-3-3333-3---------------------|
B|----3-3333-3-3333-0-0000-3-3333-1-1111-3-3333-3-3333-3-3333-3-3333-3-3333-3---------------------|
G|----0-0000-0-0000-0-0000-2-2222-0-0000-2-2222-0-0000-0-0000-0-0000-0-0000-0---------------------|  
D|----0-0000-0-0000-2-2222-0-0000-2-2222-0-0000-0-0000-0-0000-0-0000-0-0000-0---------------------|    
A|----2-2222-0-0000-2-2222--------3-3333--------2-2222-2-2222-2-2222-2-2222-2---------------------|
E|----3-3333-2-2222-0-0000----------------------3-3333-3-3333-3-3333-3-3333-3---------------------|            
Submit corrections


        Waste My Time  lessons Hard to play? Try these video lessons and learn fast Waste My Time  lessons
        
↑ Back to top | Tablatures and chords for acoustic guitar and electric guitar, ukulele, drums are parodies/interpretations of the original songs. You may use it for private study, scholarship, research or language learning purposes only