Home » S » Safe To Say »

Safe To Say - Spun Tabs

Artists:  A B C D E F G H I J K L M N O P Q R S T U V W X Y Z # 

Spun Tabs

(ver. 1) Click to play this song!
Safe To Say
 - Intro:

Guitar 1
eb|-----------------------------------------|
Bb|-----------------------------------------|
Gb|-----------0-----------------------------|
Db|--5/2----2---2--------0--------0---------|
Ab|-------0-------0----3---3----5---5-------|   (2x)
Eb|------------------1--------3-------------|



 - Verse 1:
(Push you a little harder so you can feel tonight...)

Guitar 1
eb|-----------------------------------------|
Bb|-----------------------------------------|
Gb|-----------0-----------------------------|
Db|--5/2----2---2--------0--------0---------|
Ab|-------0-------0----3---3----5---5-------|   (6x)
Eb|------------------1--------3-------------|




 - Chorus:
(Awake, I am a gun...)

Guitar 1                           Harmonics done at the 2 time
eb|----------------------|           eb|---5+----|
Bb|----------------------|           Bb|---5+----|
Gb|----------------------|           Gb|---5+----|
Db|-------------7--------|           Db|---5+----|
Ab|--7------3---5--------|   (4x)    Ab|---------| 
Eb|--5------1------------|           Eb|---------|



 - Verse 2:
(A small rush in the morning...)

Guitar 1
eb|----------------------|
Bb|----------------------|
Gb|----------------------|
Db|----------------------|
Ab|--7------3---5--------|   (4x)
Eb|--5------1---3--------|


Guitar 2
eb|----------------------------------------------------------|
Bb|-13-------------------------13----------------------------|
Gb|----12-------------------------12-------------------------|
Db|-------14~----14-12-10/9----------14~----14-12-10/9-------|
Ab|----------------------------------------------------------|
Eb|----------------------------------------------------------|



 - Chorus:
(Away, I am a gun...)

Guitar 1                           Harmonics done at the 2 time
eb|----------------------|           eb|---5+----|
Bb|----------------------|           Bb|---5+----|
Gb|----------------------|           Gb|---5+----|
Db|-------------7--------|           Db|---5+----|
Ab|--7------3---5--------|   (4x)    Ab|---------| 
Eb|--5------1------------|           Eb|---------|



 - Outro:
(Like a new disease...)

Guitar 1
eb|-----------------|
Bb|-----------------|
Gb|-----------------|
Db|---------7-------|
Ab|--3------5-------|   (4x)
Eb|--1--------------|



 - Verse 3:
(Swimming through your veins ...)

Guitar 1
eb|----------------------|
Bb|----------------------|
Gb|----------------------|
Db|----------------------|
Ab|--3------5---7--------|   (4x)
Eb|--1------3---5--------|


Guitar 2
eb|---------------------------------------------------------|
Bb|-13------------------------------------------------------|
Gb|----12---------------------------------------------------|
Db|-------14~----10-12-9----9h10p9--------------------------|
Ab|--------------------------------10-7--(5)---5s7h10p7-----|    (2x)
Eb|---------------------------------------------------------|


(Stay awake...)

Guitar 1
eb|-----------------------------------------|
Bb|-----------------------------------------|
Gb|-----------0-----------------------------|
Db|--5/2----2---2--------0--------0---------|
Ab|-------0-------0----3---3----5---5-------|   
Eb|------------------1--------3-------------|

eb|--------------------------------|
Bb|--------------------------------|
Gb|-----------0--------------------|
Db|--5/2----2---2----3-3-----------|
Ab|-------0-------0--3-3-----------|   
Eb|------------------1-1-----------|



 - Chorus:
(Awake, I am a gun...)

Guitar 1                           Harmonics done at the 2 time
eb|----------------------|           eb|---5+----|
Bb|----------------------|           Bb|---5+----|
Gb|----------------------|           Gb|---5+----|
Db|-------------7--------|           Db|---5+----|
Ab|--7------3---5--------|   (4x)    Ab|---------| 
Eb|--5------1------------|           Eb|---------|


(Awake, again, again...)

Guitar 1                           Harmonics done at the 2 time
eb|----------------------|           eb|---5+----|
Bb|----------------------|           Bb|---5+----|
Gb|----------------------|           Gb|---5+----|
Db|-------------7--------|           Db|---5+----|
Ab|--7------3---5--------|   (5x)    Ab|---------| 
Eb|--5------1------------|           Eb|---------|


 - End:

Guitar 1
eb|-------|
Bb|-------|
Gb|-------|
Db|-------|
Ab|--3----|
Eb|--1----|


Guitar 2
eb|---5+---|
Bb|---5+---|
Gb|---5+---|
Db|---5+---|
Ab|--------| 
Eb|--------|
            
Submit corrections

↑ Back to top | Tablatures and chords for acoustic guitar and electric guitar, ukulele, drums are parodies/interpretations of the original songs. You may use it for private study, scholarship, research or language learning purposes only