» » »

Sacramentum - Fogs Kiss Tabs

Artists:  A B C D E F G H I J K L M N O P Q R S T U V W X Y Z # 

Fogs Kiss Tabs

(ver. 1) Click to play this song!
Sacramentum
 Rating:
2.5/5 (22 votes)

 Fogs Kiss  lessons Tabs too difficult? Try these video lessons and learn fast
 
                
  Trem.pick..........................................
e|---------------------------------------------------------------------------------|
B|---------------------------------------------------------------------------------|INTRO FIGURE
G|--------------17-16-14---------------17-16-14------------------------------------|
D|--14--16--17--14-14-14---12--14--15--14-14-14------------------------------------|
A|--14--14--14-------------12--12--12----------------------------------------------|
E|--12--12--12-------------10--10--10----------------------------------------------|

e|----------------------------------------------------------------------------|
B|----------------------------------------------------------------------------|
G|----------------------------------------------------------------------------|VERSE 1.
D|-------------------------------------------9-10----10----10----9----9-------|
A|------2---3-----3----3--3--2-2-2-2------12------12----12----12---12----12---|
E|---5------5--5-----5----5--5-5-5-5------------------------------------------|


e|---------------------------------------------------------------------------|
B|---------------------------------------------------------------------------|
G|---------------------------------------------------------------------------| BRIDGE 1.
D|--5-5-5--4-4-4--------9-10------10-----10-----9-----9----------------------|
A|--7-7-7--6-6-6----12--------12------12----12-----12----12------------------|
E|--0-0-0--7-7-7-------------------------------------------------------------|


e|---------------------------------------------------------------------------|
B|---------------------------------------------------2-----------------------|
G|--6------4----2----------6-----------4----------2-----2--------------------| CHORUS
D|--7------6----4-------7-----------6----------4-----------4-----------------|
A|--9------7----5----9----------7-----------5--------------------------------|
E|---------------------------------------------------------------------------|


     INTERLUDE:
e|---------------------------------------------------------------------------------------------------|
B|-------------------------------------------------3-------------------------------------------------|
G|---10--9-------------10--9--------------------2----------------------------------------------------|
D|---------10---8-7-----------10--8-8-8------0---------------------------7-7-----------------7-7-7---|
A|------------------------------------------------------5--8--5--8-5--8--------5--8-5-8-5-8----------|
E|---------------------------------------------------------------------------------------------------|


e|-----------------------------------------------------------------------------------------------|
B|-----------------------------------------------------------------------------------------------|VERSE 2.
G|-----------------------------------------------------------------------------------------------|
D|-------3-------3--------3-------3------5-----5-----5------7------7-----7-------8-------8-------|
A|---5-------5--------5-------5-------6-----6-----6-----8-------8-----8------10------10------10--|
E|-----------------------------------------------------------------------------------------------|


e|---------------------------------------------------------------------------|
B|---------------------------------------------------------------------------| BRIDGE 2.
G|---------6-----7------6----------------------------------------------------|
D|---4-4------4-----4--------7-----7-7--6----6-6-6---------------------------|
A|------------------------------9--9-9-----7-7-7-7---------------------------|
E|---------------------------------------------------------------------------|


       LET RING SECTION!.................................................................................
   2X                      2X                     2X                            2X
e|---------------------------------------------------------------------------------------------------------|
B|---------5--------4------------8--------7--------------10-----------9----------------12----------11------|
G|------6--------6------------9--------9-------------11-----------11-----11--------13----------13------13--|
D|--6---------6-----------9---------9-----------11------------11---------------13-----------13-------------|
A|---------------------------------------------------------------------------------------------------------|
E|---------------------------------------------------------------------------------------------------------|


     OUTRO+END HARMONIES!
 eI-------------------------------------------------------------------------------------------------|
 BI-------------------------------------------------------------------------------------------------|
 GI---------1--------------1-------------1----------------------------------------------------------|
 DI------2-----2--------2-----2-------2-----2----2-1-----2-1----------------1-------------1---------|
 AI--4--------------0--------------4------------------4-------4----------2-----2-------2-----2------|
 EI------------------------------------------------------------------4--------------0---------------|

e I----------------------------------------------------------------------------------------------------|
B I------------------------------------------------------------------------------------0-1-------------|
G I---------------------------------------------------------------------------------2------------------|
D I--------1---------------------------------0---4-5------2---4-5-------0--4-5---2---------------------|
A I-----2-----2----2-1-------2-1---------2-------------0------------2------------------------5-4-------|
E I--4-------------------4--------4----------------------------------------------------------------7---|

 e I------------------------------------------------------------------------------------------------------|
 B I------------------------------------------------------------------------------------------------------|
 G I------------------------------------------------------------------------------------------------------|
 D I-----------------------------------------------2---4-5---------4---6-7-------4---6-7--------4---6-7---|
 A I------0---4-5------2---4-5-------0---4-5----2----------------4------------2-------------4-------------|
 E I--2-------------0------------2------------------------------------------------------------------------|

eI-------------------------------------------------------------------------------------------------------|
BI-------------------------------------------------------------------------------------------------------|
GI-------------------------------------------------------------------------------------------------------|
DI-----4---6-7---------------------------------1-2-----------1-2-----------1-2----------------------6----|
AI--4------------7-6-------7-6-------------2-------------2--------------2--------2-1------2-1-------6----|
EI---------------------9--------9------4--------------0-------------4------------------4--------4---4----|            
Submit corrections


        Fogs Kiss  lessons Hard to play? Try these video lessons and learn fast Fogs Kiss  lessons
        
↑ Back to top | Tablatures and chords for acoustic guitar and electric guitar, ukulele, drums are parodies/interpretations of the original songs. You may use it for private study, scholarship, research or language learning purposes only