Home » R » Ry Cooder »

Ry Cooder - On The Couch Tabs

Artists:  A B C D E F G H I J K L M N O P Q R S T U V W X Y Z # 

On The Couch Tabs

(ver. 1) Click to play this song!
Ry Cooder
Playing Notes:

/ - slide up
\ - slide down
s - slide between notes
p - pull off
~ - vibrato
* - notes played without slide

Played in Open D (D A D F# A D from low to high)

D-|-/3-s-2~----------------/3--0---------------------/3-s-2-s-3-p-0--2-----|
A-|-------------------------------/5~--------(p-0)-------------------------|
F#|------------------------------------------------------------------------|
D-|----------0----0---0----------------------------------------------------|
A-|-----------------0-----------------(5---5)---------------------------0--|
D-|--------------------------------------5---------------------------------|


|------/3-s-2-p-0--------------/3-p-0--/2~--------/3-----------------------|
|-----------------/5~---------------------------------/5~---------------0--|
|------------------------------------------------------------5---/6-s-5----|
|-0---0---------------------------------------0-------------5--------------|
|---0-----------------(5---5)---------------0--------------5---------------|
|------------------------5--------------------------------5----------------|


(*) (*
|-----------------------------------------------------------------------2--|
|-----0-------------------------------------------------------------------0|
|---1-----------------------------------------------------------------1----|
|-----------0--(3)/5--/5-s-3-s-5-/7---\2--s--3--s--2-p-0---0---0-----------|
|-0----------------------------------------------------------0------0------|
|-----------0--(3)/5--/5-s-3-s-5-/7---\2--s--3--s--2-p-0---0---------------|


|---0---------------2-----------0-----------------0-----------0------------|
|------------------0--0-------------------0--------------------------------|
|-6---------------1-----1-----6----------------6---------5-----------3-----|
|-------0--------2------------------0----------------------0-----------0---|
|-----7---0-----0-----------------7----------7---------5-----------3-------|
|-----------------------------------------------------0-----------0--------|


*)
|--------------------------------------------------------------------------|
|--------------------------------------------------------------------------|
|---1----------------------------------------------------------------------|
|---------0--3--/5~--/5-s-3-s-5-/7~---\2--s--3--p-0-----0-----0--3-s-5-----|
|-2------------------------------------------------------------------------|
|---------0--3--/5~--/5-s-3-s-5-/7~---\2--s--3--p-0---0-------0--3-s-5-5---|


|-----------------------------------------------0--|
|----------------------------------------------0---|
|---------------------------------------------1----|
|-/5--\3--/7~---\2--s--3---0------0----------0-----|
|----------------------------0--------------0------|
|-/5--\3--/7~---\2--s--3-------0----0--------------|
            
Submit corrections

↑ Back to top | Tablatures and chords for acoustic guitar and electric guitar, ukulele, drums are parodies/interpretations of the original songs. You may use it for private study, scholarship, research or language learning purposes only