Home » R » Ry Cooder »

Ry Cooder - Police Dog Blues Tabs

Artists:  A B C D E F G H I J K L M N O P Q R S T U V W X Y Z # 

Police Dog Blues Tabs

(ver. 1) Click to play this song!
Ry Cooder
 Rating:
3.4/5 (5 votes)
                Police Dog Blues is played in open D
Tune : D A D F# A D (bottom to top)

Key :

H Play harmonic (e.g. 12H = 12th fret harmonic)
W Note is whammed (bend)
aPb Pull off from fret a to fret b
aSb Slide from fret a to fret b


D -12H-----------12H----------------2-------------------0---------------|
A ----12H-----------12H-----------0---3W-0------------2---2--0----------|
F#-------12H-----------12H---------------------------------------0------|
D ----------12H-----------12H----------------------------------3---0----|
A ------------------------------0---------------0-1-2--------0----------|
D -------------------------------------------------------------------0--|

D -0---------------0--------0------|
A ---3-2-0------------0------------|
F#-----------0-----------0---------|
D ---------3---0---------------0---|
A -------0------------------0------|
D ---------------0-----------------|

D ------7---------7--------7--------9---------12H-----------12H--------|
A --8W--------8W--------8--------8---------------12H-----------12H-----|
F#--------------------------------------------------12H------------0---|
D ---------0---------0--------0--------0---------------12H-----------0-|
A ---------------------------------------------------------------------|
D --0-------------0-----0-----------0-----0----------------------------|

D --------0--3-----0--------3P2--0-----0-------------0------------------|
A -----2-----------------0----------2-----0-------------3--2--0---------|
F#--------------------------------------------0-------------------0-----|
D --------0-----------0---------------------3---0---------------3---0---|
A -1-2------------------------------------0-------------------0---------|
D --------------0-------------0-------------------0-------------------0-|

D -0--------0--------------0----------------0----------0--------0-------|
A ----0-----------------0-----0-----------0---0-----0--------------3--2-|
F#-------0-----0-1-2-3-----------3--0--2---------1--------0-------------|
D ---------------2-3-4-----------------3---------2----------------------|
A ----------0-----------------------------------------------------------|
D -----------------------------------------------------------0----------|

D ----------------0--------0--------------------------------------------|
A -0-----------------0--------------------------------------------------|
F#-------0--------------0---------0---1-2-3-0--0---1-2-3-0--0---1-2-3-0-|
D ----3-----0-----------------0-----0-2-3-4-0----0-2-3-4-0----0-2-3-4-0-|
A -0-----------------------0--------------------------------------------|
D -------------0--------------------------------------------------------|

D ---------------0--------------0--3-----0--------3P2--0-----0----------|
A ---------------------------2-----------------0----------2-----0-------|
F#-1-2-3--0-0-0-------------------------------------------------------0-|
D -2-3-4--0-0-0-----------------0-----------0----------------------3----|
A ------------------0--1--2-------------------------------------0-------|
D ------------------------------------0-------------0-------------------|

D -------0-----------------------0--------0-----------------------------|
A ----------3--2--0-----------------0-----------------------------------|
F#----------------------0--------------0--------------------------------|
D -0-----------------3-----0-----------------0--------------------------|
A ----------------0-----------------------0-----------0-------0-------0-|
D ----0-----------------------0------------------2S4-----2S4-----2S4----|

D -------------0--------------------0----------------------0--------0---|
A ----------2-----2--0-----------------3--2--0----------------0---------|
F#-------------------------0-----------------------0-------------0------|
D ----------------------3-----0-----------------3-----0---------------0-|
A -0--1--2-----------0-----------------------0----------------------0---|
D -------------------------------0----------------------0---------------|

D ---------------------------------------------------------------------|
A ---------------------------------------------------------------------|
F#---------------------------------------------------------------------|
D -0-----2-----3-----4-------0---2-----3-----4-----0-------2---3-----4-|
A ---------------------------------------------------------------------|
D ----0-----2-----3-----4--0--------2-----3-----4-----0--2--------3----|

D ----------0--------------------------0--3-----0--------3P2--0-----0---|
A -------------3--2--0--------------2-----------------0----------2----0-|
F#-------------------------0--------------------------------------------|
D ----0-----------------3--------------0-----------0--------------------|
A -------------------0--------1--2------------------------------------0-|
D -4-----0-----------------------------------0-------------0------------|

D -------------0-----------------------0--------0--------2-------------|
A ----------------3--2--0-----------------0-----------0-----3W--0------|
F#----0-----------------------0--------------0-------------------------|
D -3-----0-----------------3-----0-------------------------------------|
A ----------------------0-----------------------0--0-------------------|
D ----------0-----------------------0----------------------------------|

D -------------0--------------------0-----------------------0-------0---|
A ----------2-----2--0-----------------3--2--0-----------------0--------|
F#-------------------------0-----------------------0--------------0-----|
D ----------------------3-----0-----------------3-----0---------------0-|
A -0--1--2-----------0-----------------------0----------------------0---|
D -------------------------------0-----------------------0--------------|

D -12H----------12H----------12H----------12H---------------------0--3-|
A ----12H----------12H----------12H----------12H---------------2-------|
F#-------12H----------12H----------12H----------12H--------------------|
D ----------12H----------12H----------12H----------12H------------0----|
A -------------------------------------------------------1--2----------|
D ---------------------------------------------------------------------|

D ----0--------3P2--0-----0-----------------0--------------------------|
A ----------0----------2-----0-----------------3--2--0-----------------|
F#---------------------------------0-----------------------0-----------|
D -------0----------------------3-----0-----------------3-----0--------|
A ---------------------------0-----------------------0-----------------|
D -0-------------0-----------------------0-----------------------0-----|

D -0--------0-----------2---------------------0------------------------|
A ----0--------------0-----3W--0-----------2-----2--0------------------|
F#-------0------------------------------------------------0------------|
D -------------0---------------------------------------3-----0---------|
A ----------0-----0---------------0--1--2-----------0------------------|
D --------------------------------------------------------------0------|

D -0-----------------------0--------0---0--|
A ----3--2--0-----------------0---------0--|
F#----------------0--------------0------0--|
D -------------3-----0------------------0--|
A ----------0-----------------------0------|
D ----------------------0------------------|
            
Submit corrections

↑ Back to top | Tablatures and chords for acoustic guitar and electric guitar, ukulele, drums are parodies/interpretations of the original songs. You may use it for private study, scholarship, research or language learning purposes only