Home » R » Ry Cooder »

Ry Cooder - Nothing Out There Tabs

Artists:  A B C D E F G H I J K L M N O P Q R S T U V W X Y Z # 

Nothing Out There Tabs

(ver. 1) Click to play this song!
Ry Cooder
 Rating:
4/5 (4 votes)
                / - slide up
\ - slide down
h - hammer on
p - pull off
s - slide between notes
~ - vibrato
* - notes played without slide

played in Open D (D A D F# A D from low to high)

D-|------------------------------------------------------------------------|
A-|------------------------------------------------------------------------|
F#|------------------------------------------------------------------------|
D-|-0-h-2~-----/3--0-----0-h-2~--p-0--/2----/3---0--------/2~----/3-s-2-p-0-
A-|------------------------------------------------------------------------|
D-|-0-h-2~--------------0--h-2~--p-0--/2---------------0--/2~--------------|


  
|--------------------------------------------------------------------------|
|--------------------------------------------------------------------------|
|--------------------------------------------------------------------------|
|-0---------------------5-s-7~---10--s--12-12~--\---5-s-7~---10--s--12-12~-|
|----------/7--------------------------------------------------------------|
|----/5~-------7~--\----5-s-7~---10--s--12-12~--\---5-s-7~---10--s--12-12~-|


                                                              (*)
|--------------------------------------------------------------------------|
|----------------------------------------------------------------0---------|
|--------------------------------------------------------------1-----------|
|-5-s-7~---/10\--5~---s-3-p-0--/3~---/3\-2~--p0----------------------------|
|-------------------------------------------------/3--s--2--0--------------|
|-5-s-7~---------5~---s-3-p-0--/3~---/3\-2~--p0----------------------------|


                (*)
|--------------------------------------------------------------------------|
|----------------3---------------------------------------------------------|
|--------------------------------------------------------------------------|
|-/2~---/3--0--------0h/2~----/3--0-----0h/2~---2--s--5~--\---0h/2~---/3-0-|
|--------------------------------------------------------------------------|
|-/2~----------------0h/2~--------------0h/2~---2--s--5~--\---0h/2~--------|



|----------------|
|----------------|
|----------------|
|-0h/2~---/3--0--|
|----------------|
|-0h/2~----------|
            
Submit corrections

↑ Back to top | Tablatures and chords for acoustic guitar and electric guitar, ukulele, drums are parodies/interpretations of the original songs. You may use it for private study, scholarship, research or language learning purposes only