Home » R » Ry Cooder »

Ry Cooder - Feeng Bad Blues Tabs

Artists:  A B C D E F G H I J K L M N O P Q R S T U V W X Y Z # 

Feeng Bad Blues Tabs

(ver. 1) Click to play this song!
Ry Cooder
 Rating:
4/5 (4 votes)
                / - slide up
\ - slide down
b - bend
h - hammer on
p - pull off
s - slide between notes
~ - vibrato

played in Open D (D A D F# A D from low to high)

D-|------------------------------------------------------------------------|
A-|----------12~----/12-s-10-----------------12--/12-/12-------------------|
F#|-10-s-12--12~------------12-s-11------/12-------------12-s-11---10\-(0)-|
D-|-10-s-12--12~-------------------/12--------------------------/1210\-(0)-|
A-|-10-s-12--12~---------------------------------------------------10\-(0)-|
D-|-10-s-12--------------------------------------------------------10\-(0)-|


|-------------------------------------------------------------------0------|
|----5--5-5----------5--5-5----0-h-2--0------------------------------------|
|-/5--------------/5------------------0------------------------------------|
|-----------5-----------------------------------------0-----------------0--|
|-----------------------------------------------0-h-2----------------------|
|-------------------------------------------/4-----------0-----------------|


|-----------------------------------------------0--------------------0-----|
|----5---5-5---------5--5-5------0-h/2--0--------------------------0-------|
|----5------------/5-------------------------------------------------------|
|-/5---------5--------------------------------0-------------0--------------|
|-/5----------------------------------------------------0-2----------------|
|-/5----------------------------------------0--------/4--------0-----------|


|-/4--4-s-2-p-0-/2---2--4-s-2-p-0-------------0-2-0------0-----0-----------|
|-----------------------------------------0h2-----0------------------------|
|----------------------------------------------------0h1-0-----------------|
|----------------------------------------------------0---0---0---------0-0-|
|----------------0----------------0-1-/2----------0----------2----(0)h2----|
|--------------------------------------------------------------------------|


|------------0-------------------------------------------------------------|
|--------0-2------12--/12-s-10-s-12--------------------12--12-12~----------|
|--------------/12------------------/12-------------/12------------12s11---|
|---------------------------------------12-------0----------------------/12|
|-2b-0---------------------------------------0-2---------------------------|
|--------------------------------------------------------------------------|


|------------------------------------------------0---------0--/4-/4-s-2-p-0|
|-------------5-5--/5-/5---------5-5-5---0h2--0----------------------------|
|-------3-s-5-5-5----------------------------------------------------------|
|-/10\--------------------------------------------------0------------------|
|-/10\----------------------------------------0-----0h2--------------------|
|-/10\---------------------3-s-5--------------------0-----0----------------|


|---------------------------------0--------------------0-/4--\2-p-0--2-----|
|-----5--5-5----------5--5-5\-----0----------------------------------------|
|--/5--------------/5---------/5-------------------------------------------|
|------------5-------------------------------------------------------------|
|---------------5------------------------2---------------------------0-----|
|--------------5---------------------0------3-s-2-0------------------------|


|--/4p0--4-s-2-0--------------0-2-0----------------------------------------|
|----------------0-------0h2--0---0-------------------------------------0--|
|--------------------------------------0h1-0----0-1------------------------|
|--------------------------------------0---0--------0--------0---/4-0------|
|----------------0-1-2------------0-------------0-2---2--0h2----------0----|
|--------------------------------------------0-----------------------------|


|-0-/4--/7~----4-s-2-p-0---4-s-2------/4--/7--7-7---/5---4p0-/4--p0--------|
|--------------------------------/5---------------------------------/3-----|
|----0---------------------------------------------------------------------|
|--------0---------------------------------0---------0---------------------|
|--------------------------------------------------------------------------|
|-----------0--------------------------------------------------------------|


|----------------------------------------------------------0-0-------------|
|------5-5--5-5-----------5-5-5-s-3-p-0--/3-s-2-p-0----0-3-----------------|
|-----------------------5--------------------------------------------------|
|--------------5------------------------------------------------/5-s-3-p-0-|
|--------------------------------------------------------------------------|
|-3-/5-------------0--5-----------------------------------------/5-s-3-p-0-|


|-0----------------------------------------------------------------4p0-----|
|--------0---------5--5-/5-s-4--------5-5-5-5-s-2-p-0-h/2~-------------0---|
|------------3--/5------/5-s-4----------------------------------/3---------|
|-----------------------------/5----------------------------0--------------|
|--------------------------------------------------------------------------|
|----/4------3--/5----------------0-5-----------------------0--------------|


|---------------------0-/4-/4--/7--\2-------------0-2-0--------------------|
|--------------0--0-------------------0-------0h2-----0-------------0------|
|-------------------------------------------------------0h1-0----/3--------|
|-/5--\3--0-0-------------------------------------------0---0--------------|
|---------------------------------------0-1-2---------0----------------2---|
|--------------0----5------------------------------------------------------|


|------------------/12-12-12---/7--/4-s-3---------7-/9-/12-12--12--/12-----|
|----------------------------------/4-s-3-/5-------------------------------|
|--------------------------------------------------------------------------|
|-/4-0---------2-------0----------------------0----------------------------|
|---------/5-0-------------------------------------------------------------|
|-----0--------------------------------------------------------------------|


|-7-/10---------------------------------/7--5--4------------/7--5-/3-s-2---|
|--------/12-s-10--------------------------------/5------------------------|
|-----------------/12~-----------------------------------------------------|
|----------------------12\-(0)---------------------------------------------|
|--------------------------------------------------------------------------|
|--------------------------------3-s-5----------------3-/5-----------------|


|-0---0-----------/4p0-------------------------0-----------5--3-s-2--------|
|---2------------------------------------0-/3------------5----------/5-----|
|-------------/3-------3-s-1-p-0-------------------------------------------|
|-------0------------------------0----------------3-s-5--------------------|
|--------------------------------------------------------------------------|
|---------0------------------------0--------------3-s-5--------------------|


|--------5-3-s-2-p-0-----0-------------------------------0-/4-/4-4-s-2-----|
|--------------------2-0-----------------------------0-2---------------0---|
|--------------------------------------------------------------------------|
|--------------------------------------------------------------------------|
|----------------------------/2-0------------------------------------------|
|-3-s-5----------------------------/4-s-2-0---/4-5-------------------------|


|------------0-2-0-----------0-0-0------0----10-s-12--|
|--------0h2-0---0-----------0-0-0------0----10-s-12--|
|-------------------0h1-0--------------------10-s-12--|
|-------------------0---0--------------------10-s-12--|
|-0-1-2----------0-----------3---2---1--0-------------|
|-------------------------0---------------------------|
            
Submit corrections

↑ Back to top | Tablatures and chords for acoustic guitar and electric guitar, ukulele, drums are parodies/interpretations of the original songs. You may use it for private study, scholarship, research or language learning purposes only