» » »

Ryan Adams - To Be Without You Tabs

Artists:  A B C D E F G H I J K L M N O P Q R S T U V W X Y Z # 

To Be Without You Tabs

(ver. 1) Click to play this song!
Ryan Adams
 Rating:
4.3/5 (23 votes)

 To Be Without You  lessons Tabs too difficult? Try these video lessons and learn fast
 
                -----
CAPO 3
------


[Riff 1]
                                    x2
e|-------------2-0|-0-0-0----------0-|-2-0--0-0-0-----------0--|
B|-------------3--|-3-3-3----------3-|-3----3-3-3-----------3--|
G|-------------2--|-2-2-2-2-0--0-0-2-|-2----2-2-2--2-0--0-0-2--|
D|------0-2-0--0--|-0-0-0----------0-|-0--------------------0--|
A|--0-2-----------|------------------|-------------------------|
E|----------------|------------------|-------------------------|


[Riff 2]

e|-2-2-2--0-0-|-3-3-3-3-|-2-2-2-----2-2-|-3---------------|
B|-3-3-3--3-3-|-3-3-3-3-|-3-3-3-----3-3-|-3--------0------|
G|-2-2-2--2-2-|-0-0-0-0-|-2-2-2-2p0-0-0-|-0------0--------|
D|-0-0-0--0-0-|-0-0-0-0-|-0-0-0-----0-0-|-0-----------0-0-|
A|------------|-2-2-2-2-|---------------|-2--0-2----------|
E|------------|-3-3-3-3-|---------------|-3---------------|


[Riff 3]

e|-0------------0---------|-----------------------|
B|-2--0-2---------2-----2-|-------------3---------|
G|-2------2---------2-----|--------0------0---0---|
D|-2--------2---------2---|------4---4------4---4-|  
A|-0----------0-----------|---2-------------------|
A|------------------------|-0---------------------|


[Riff 4]

e|----2-0---------------------------------|
B|--------3-------3---------3---------3---|
G|--------2---------0---------0---------0-|
D|-0------------0---------0---------0-----|  
A|------------3-------0h2-------2h3-------|
E|----------------------------------------|


[Riff 5]

e|-2-2-2------2-|-3--------------|-2---------|-3--------------|
B|-3-3-3------3-|-3--------------|-3---------|-3--------------|
G|-2-2-2--0-2-2-|-0--------0-----|-2-------0-|-0--------0-----|
D|-0-0-0------0-|-0------0---0---|-0------0--|-0------0---0-0-|
A|--------------|-2--0h2-------0-|-----0h2---|-2--0h2---------|
E|--------------|-3--------------|-----------|-3--------------|


[Riff 6]

e|----2-0-----------0---------0-------------0-------|
B|----3---3-3-------3---------3-----3-------------3-|
G|---------2----------0---------0---------0-----0---|
D|-0--------------0---------0-----0-----0---2p0-----|  
A|------------0h3-------0h2---------2h3-------------|
E|--------------------------------------------------|


Riffs patterns:

[0:00 - 0:13]  Riff 1
[0:13 - 0:25]  Riff 2
[0:25 - 0:37]  Riff 3   x2
[0:37 - 0:49]  Riff 4   x2
[0:49 - 1:01]  Riff 5
[1:01 - 1:13]  Riff 3   x2
[1:13 - 1:48]  Riff 6   x6
[1:48 - 2:00]  Riff 2
[2:00 - 2:12]  Riff 3   x2
[2:12 - 2:24]  Riff 6   x2
[2:24 - 2:36]  Riff 5
[2:36 - 2:47]  Riff 3   x2
[2:47 - 3:11]  Riff 6   x4            
Submit corrections


        To Be Without You  lessons Hard to play? Try these video lessons and learn fast To Be Without You  lessons
        
↑ Back to top | Tablatures and chords for acoustic guitar and electric guitar, ukulele, drums are parodies/interpretations of the original songs. You may use it for private study, scholarship, research or language learning purposes only