» » »

Ryan Adams - Shakedown On 9th Street Tabs

Artists:  A B C D E F G H I J K L M N O P Q R S T U V W X Y Z # 

Shakedown On 9th Street Tabs

(ver. 1) Click to play this song!
Ryan Adams
 Rating:
4/5 (4 votes)

 Shakedown On 9th Street lessons Tabs too difficult? Try these video lessons and learn fast
 
                Shakedown on 9th Street
Ryan Adams


Main Riff

	A5
E-----------------------------------------------------------------------------
B-----------------------------------------------------------------------------
G-----------------------------------------------------------------------------
D--------7-7-7-----7-7-7-----5-5-5--------------------------------------------
A--------7-7-7-----7-7-7-----5-5-5--------------------------------------------
E------5-5-5-5---5-5-5-5-----5-5-5--------------------------------------------


After the chorus, it all moves down a string to D5:

	D5
E-----------------------------------------------------------------------------
B-----------------------------------------------------------------------------
G--------7-7-7-----7-7-7-----7-7-7--------------------------------------------
D--------7-7-7-----7-7-7-----7-7-7--------------------------------------------
A--------5-5-5-----5-5-5-----5-5-5--------------------------------------------
E-----------------------------------------------------------------------------

If you can get the timing right, it should sound ok. 

Towards the end, at some point the D5 moves up to an E5. If you listen to the record it should become obvious.

This is my first tab, so if you have any comments or new ideas to how the song is played, please submit a new tab
            
Submit corrections


        Shakedown On 9th Street lessons Hard to play? Try these video lessons and learn fast Shakedown On 9th Street lessons
        
↑ Back to top | Tablatures and chords for acoustic guitar and electric guitar, ukulele, drums are parodies/interpretations of the original songs. You may use it for private study, scholarship, research or language learning purposes only