» » »

Russian Red - Nice Thick Feathers Tabs

Artists:  A B C D E F G H I J K L M N O P Q R S T U V W X Y Z # 

Nice Thick Feathers Tabs

(ver. 1) Click to play this song!
Russian Red
 Rating:
4/5 (4 votes)

 Nice Thick Feathers lessons Tabs too difficult? Try these video lessons and learn fast
 
                Capo 3

e---------------------------------------|6x
B--------1---1--------------1---1-------|
G-------2-2-2-2-2----------2-2-2-2-2----|
D------2---2---2----------3---3---3-----|
A-3---0------------0--2--3--------------|
E---3-----------------------------------|

PRE-CHORUS
e----------------------------------|
B----1-------3---------------1-----|
G---2-2-2---0-0-0---0---0---2-2-2--|
D--3---3---0---0---2---2---2---2---|
A-3---------------3-------0--------|
E---------3-----------3------------|

e---------------------------------------|
B----1-------3---------------1---1------|
G---2-2-2---0-0-0---0---0---2-2-2-2-2---|
D--3---3---0---0---2---2---2---2---2----|
A-3---------------3-------0-------------|
E---------3-----------3-----------------|

CHORUS
e-----------------------3-------------------------------------|
B----------1-----------3-----------1------1------1------1-----|
G-----0---0-0-0-----0-------------2-2-2--2-2-2--0-0-0--0-0-0--|
D----2---2---2-----0-------------3---3--3---3--2---2--2---2---|
A-3-----3-----------------0--2--3------3------3---------------|
E---------------3------------------------------------3--------|

e-----------------------3-----------------------------------------------|
B----------1-----------3-----------1------1------1------1------1---1----|
G-----0---0-0-0-----0-------------2-2-2--2-2-2--0-0-0--0-0-0--0-0-0-0-0-|
D----2---2---2-----0-------------3---3--3---3--2---2--2---2--2---2---2--|
A-3-----3-----------------0--2--3------3------3-------------3-----------|
E---------------3------------------------------------3------------------|


e---------------------------------------|4x
B--------1---1--------------1---1-------|
G-------2-2-2-2-2----------2-2-2-2-2----|
D------2---2---2----------3---3---3-----|
A-3---0------------0--2--3--------------|
E---3-----------------------------------|

PRE-CHORUS

CHORUS


e---------------------------------------|4x
B--------1---1--------------1---1-------|
G-------2-2-2-2-2----------2-2-2-2-2----|
D------2---2---2----------3---3---3-----|
A-3---0------------0--2--3--------------|
E---3-----------------------------------|


PRE-CHORUS (ENDING)
            
Submit corrections


        Nice Thick Feathers lessons Hard to play? Try these video lessons and learn fast Nice Thick Feathers lessons
        
↑ Back to top | Tablatures and chords for acoustic guitar and electric guitar, ukulele, drums are parodies/interpretations of the original songs. You may use it for private study, scholarship, research or language learning purposes only