Home » R » Russian Red »

Russian Red - Girls Just Wanna Have Fun Tabs

Artists:  A B C D E F G H I J K L M N O P Q R S T U V W X Y Z # 

Girls Just Wanna Have Fun Tabs

(ver. 1) Click to play this song!
Russian Red
[Verse 1]
 
e|----------------------------|----------------------------------------------|
B|---------------0------------|------------3---------------------------------|
G|---------0-----------0------|---------0------0-----0-----------------------|
D|------0-----0-----0-----0---|------0------------0--------------------------|
A|----------------------------|----------------------------------------------|
E|---3------------------------|---3------------------------------------------|
     
e|----------------------------|----------------------------------------------|
B|------------0---------------|------------0---------------------------------|
G|---------0-------0-----0----|---------0-------0----------------------------|
D|------2-------------2-------|------2---------------------------------------|
A|----------------------------|----------------------------------------------|
E|---0------------------------|---0------------------------------------------|
     
e|----------------------------|----------------------------------------------|
B|------------1---------------|------------1---------------------------------|
G|---------0-------0-----0----|---------0------------------------------------|
D|------2-------------2-------|------2---------------------------------------|
A|---3------------------------|---3------------------------------------------|
E|----------------------------|----------------------------------------------|
                
e|----------------|----------------|-----------------------------------------|
B|----------------|----------------|-------------1---------------------------|
G|---------0------|---------2------|---------0--------0-----0----------------|
D|------2-----0---|------0-----0---|------2--------------2-------------------|
A|----------------|---0------------|---3-------------------------------------|
E|---0------------|----------------|-----------------------------------------|
       
e|----------------|----------------|-----------------------------------------|
B|----------------|----------------|------------1----------------------------|
G|---------0------|---------2------|---------0-----0-------------------------|
D|------2-----0---|------0-----0---|------2-----------2----------------------|
A|----------------|---0------------|---3-----------------3-------------------|
E|---0------------|----------------|------------------------0----------------|


 [Verse 2] 
           
e|---------------------------|-----------------------------------------------|
B|------------3--------------|------------3----------------------------------|
G|---------0-------0-----0---|---------0-------0-----0-----------------------|
D|------0-------------0------|------0-------------0--------------------------|
A|---------------------------|-----------------------------------------------|
E|---3-----------------------|---3-------------------------------------------|
       
e|---------------------------|-----------------------------------------------|
B|------------0--------------|------------0----------------------------------|
G|---------0-------0-----0---|---------0-------0-----0-----------------------|
D|------2-------------2------|------2-------------2--------------------------|
A|---------------------------|-----------------------------------------------|
E|---0-----------------------|---0-------------------------------------------|
        
e|---------------------------|-----------------------------------------------|
B|------------1--------------|------------1----------------------------------|
G|---------0-------0-----0---|---------0-------------------------------------|
D|------2-------------2------|------2----------------------------------------|
A|---3-----------------------|---3-------------------------------------------|
E|---------------------------|-----------------------------------------------|
       
e|----------------|----------------|-----------------------------------------|
B|----------------|----------------|-------------1---------------------------|
G|---------0------|---------2------|---------0--------0-----0----------------|
D|------2-----0---|------0-----0---|------2--------------2-------------------|
A|----------------|---0------------|---3-------------------------------------|
E|---0------------|----------------|-----------------------------------------|
       
e|------------------|--------------------------------------------------------|
B|------------0h3---|---------------------1----------------------------------|
G|---------0--------|------------------0-----0-------------------------------|
D|------2-----------|---0-----0-----2-----------2----------------------------|
A|------------------|------3-----3-----------------3-------------------------|
E|---0--------------|--------------------------------------------------------|


 [Bridge]   

 00:43
           
e|---------------------------|-----------------------------------------------|
B|------------3--------------|------------3----------------------------------|
G|---------0-------0-----0---|---------0-------------------------------------|
D|------0-------------0------|------0----------------------------------------|
A|---------------------------|-----------------------------------------------|
E|---3-----------------------|--(3)------------------------------------------|
           
e|---------------------------|-----------------------------------------------|
B|------------0--------------|------------0----------------------------------|
G|---------0-------0-----0---|---------0-------0-----------------------------|
D|------2-------------2------|------2-------------0--------------------------|
A|---------------------------|-----------------------------------------------|
E|---0-----------------------|---0-------------------------------------------|
           
e|---------------------------|-----------------------------------------------|
B|------------3--------------|------------3----------------------------------|
G|---------0-------0-----0---|---------0-------0-----0-----------------------|
D|------0-------------0------|------0-------------0--------------------------|
A|---------------------------|-----------------------------------------------|
E|---3-----------------------|---3-------------------------------------------|
       
e|----------------|----------------|-----------------------------------------|
B|----------------|----------------|-------------1---------------------------|
G|---------0------|---------2------|---------0--------0-----0----------------|
D|------2-----0---|------0-----0---|------2--------------2-------------------|
A|----------------|---0------------|---3-------------------------------------|
E|---0------------|----------------|-----------------------------------------|
       
e|----------------|----------------|-----------------------------------------|
B|----------------|----------------|------------1----------------------------|
G|---------0------|---------2------|---------0-----0-------------------------|
D|------2-----0---|------0-----0---|------2-----------2----------------------|
A|----------------|---0------------|---3-----------------3-------------------|
E|---0------------|----------------|------------------------0----------------|


 [Guitar Break]

e|---------------------------|-----------------------------------------------|
B|------------3--------------|------------3----------------------------------|
G|---------0-------0-----0---|---------0-----0-------------------------------|
D|------0-------------0------|------0-----------0-----0----------------------|
A|---------------------------|-----------------------------------------------|
E|---3-----------------------|---3-----------------3-------------------------|

e|---------------------------|-----------------------------------------------|
B|------------0--------------|------------0----------------------------------|
G|---------0-------0-----0---|---------0-----0-------------------------------|
D|------2-------------2------|------2-----------2-----2----------------------|
A|---------------------------|-----------------------------------------------|
E|---0-----------------------|---0-----------------0-------------------------|

e|---------------------------|-----------------------------------------------|
B|------------1--------------|------------1----------------------------------|
G|---------0-------0-----0---|---------0-----0-------------------------------|
D|------2-------------2------|------2-----------2-----2----------------------|
A|---3-----------------------|---3-----------------3-------------------------|
E|---------------------------|-----------------------------------------------|

e|------------------------------------|--------------------------------------|
B|----------------------------1p0-----|----------------------------1p0-------|
G|-----0----0h2---0-------0-------0---|-----0----0h2---0-------0-------0-----|
D|----------------------2-------------|----------------------2---------------|
A|-------0------3-----3---------------|-------0------3-----3-----------------|
E|---0--------------------------------|---0----------------------------------|


 [Verse 3]
          
e|---------------------------|-----------------------------------------------|
B|------------3--------------|------------3----------------------------------|
G|---------0-------0-----0---|---------0-------0-----0-----------------------|
D|------0-------------0------|------0-------------0--------------------------|
A|---------------------------|-----------------------------------------------|
E|---3-----------------------|---3-------------------------------------------|
        
e|---------------------------|-----------------------------------------------|
B|------------0--------------|------------0----------------------------------|
G|---------0-------0-----0---|---------0-------0-----0-----------------------|
D|------2-------------2------|------2-------------2--------------------------|
A|---------------------------|-----------------------------------------------|
E|---0-----------------------|---0-------------------------------------------|
       
e|---------------------------|-----------------------------------------------|
B|------------1--------------|------------1----------------------------------|
G|---------0-------0-----0---|---------0-------0-----0-----------------------|
D|------2-------------2------|------2-------------2--------------------------|
A|---3-----------------------|---3-------------------------------------------|
E|---------------------------|-----------------------------------------------|
       
e|----------------|----------------|-----------------------------------------|
B|----------------|----------------|-------------1---------------------------|
G|---------0------|---------2------|---------0--------0-----0----------------|
D|------2-----0---|------0-----0---|------2--------------2-------------------|
A|----------------|---0------------|---3-------------------------------------|
E|---0------------|----------------|-----------------------------------------|
       
e|----------------|----------------|-----------------------------------------|
B|----------------|----------------|------------1----------------------------|
G|---------0------|---------0------|---------0-----0-------------------------|
D|------2-----0---|------0---------|------2-----------2----------------------|
A|----------------|---0--------3---|---3-----------------3-------------------|
E|---0------------|----------------|------------------------0----------------|


 [Bridge 2]

e|---------------------------|-----------------------------------------------|
B|------------3--------------|------------3----------------------------------|
G|---------0-------0-----0---|---------0-------0-----0-----------------------|
D|------0-------------0------|------0-------------0--------------------------|
A|---------------------------|-----------------------------------------------|
E|---3-----------------------|--(3)------------------------------------------|

e|---------------------------|-----------------------------------------------|
B|------------0--------------|------------0----------------------------------|
G|---------0-------0-----0---|---------0-------0-----------------------------|
D|------2-------------2------|------2-------------2--------------------------|
A|---------------------------|-----------------------------------------------|
E|---0-----------------------|---0-------------------------------------------|

e|---------------------------|-----------------------------------------------|
B|------------3--------------|------------3----------------------------------|
G|---------0-------0-----0---|---------0-------0-----0-----------------------|
D|------0-------------0------|------0-------------0--------------------------|
A|---------------------------|-----------------------------------------------|
E|---3-----------------------|---3-------------------------------------------|
       
e|----------------|----------------|-----------------------------------------|
B|----------------|----------------|-------------1---------------------------|
G|---------0------|---------2------|---------0--------0-----0----------------|
D|------2-----0---|------0-----0---|------2--------------2-------------------|
A|----------------|---0------------|---3-------------------------------------|
E|---0------------|----------------|-----------------------------------------|
       
e|----------------|----------------|-----------------------------------------|
B|----------------|----------------|------------1----------------------------|
G|---------0------|---------2------|---------0-----0-------------------------|
D|------2-----0---|------0-----0---|------2-----------2----------------------|
A|----------------|---0------------|---3-----------------3-------------------|
E|---0------------|----------------|------------------------0----------------|


 [Outro]

e|---------------------------|----------------|------------------------------|
B|------------3--------------|----------------|------------1-----------------|
G|---------0-------0-----0---|---------2------|---------0--------------------|  x4  
D|------0-------------0------|------2-----2---|------2-----------------------|
A|---------------------------|---0------------|---3--------------------------|
E|---3-----------------------|----------------|------------------------------|

e|---------------------------|----------------|------------------------------|
B|------------3--------------|----------------|------------------------------|
G|---------0-------0-----0---|---------0------|---------2--------------------|  x2  
D|------0-------------0------|------2-----0---|------2-----2-----------------|
A|---------------------------|----------------|---3--------------------------|
E|---3-----------------------|---0------------|------------------------------|

e|---------------------------|----------------|----------------|-------------|
B|------------3--------------|----------------|----------------|----------0--|
G|---------0-------0-----0---|---------0------|---------2------|-------0-----| last time
D|------0-------------0------|------2-----0---|------2-----2---|----0--------|
A|---------------------------|----------------|---3------------|-------------|
E|---3-----------------------|---0------------|----------------|--3----------|            
Submit corrections

↑ Back to top | Tablatures and chords for acoustic guitar and electric guitar, ukulele, drums are parodies/interpretations of the original songs. You may use it for private study, scholarship, research or language learning purposes only