Home » R » Russian Circles »

Russian Circles - Geneva Tabs

Artists:  A B C D E F G H I J K L M N O P Q R S T U V W X Y Z # 

Geneva Tabs

(ver. 1) Click to play this song!
Russian Circles

Intro:
C#|----------------------|
G#|----------------------|
F#|----------------------| Mike Loops this Phrase Then does the lead ontop
C#|----------------------|
G#|------5----6--5--0--5-|
C#|-0--0----0------------|
    ^Palm Mute 



Lead: Swells
C#|----------------------------------------------------------------------------------|
G#|--------------------------------------------------------------------15--13--------|
F#|-14----12----15----14---------14----12----11--------12--------14-------------12b--|
C#|------------------------------------------------12--------------------------------|
G#|----------------------------------------------------------------------------------|
C#|----------------------------------------------------------------------------------|

Overdubed onto the loop
C#|---------------------------------|
G#|---------------------------------|
F#|---------------------------------|
C#|-0-0-0---0-0-0---0-0-0---0-0-0---|
G#|-0-0-0---0-0-0---0-0-0---0-0-0---|
C#|-0-0-0---0-0-0---0-0-0---0-0-0---|
Palm Mutted^

Lead 
C#|-12----15----13----12---|
G#|------------------------|
F#|------------------------|
C#|------------------------| (x4)
G#|------------------------|
C#|------------------------|


Looped Riffs stop
Then:
C#|-------------------------------|
G#|-------------------------------|
F#|-7----10---8------5----3--2----|
C#|-------------------------------| (x2) 
G#|-5----8----6------3----1--0----|
C#|-0-----------------------------|

C#|----|
G#|----|
F#|-7--|
C#|----|              
Submit corrections

↑ Back to top | Tablatures and chords for acoustic guitar and electric guitar, ukulele, drums are parodies/interpretations of the original songs. You may use it for private study, scholarship, research or language learning purposes only