» » »

Rush Of Fools - O Come All Ye Faithful Tabs

Artists:  A B C D E F G H I J K L M N O P Q R S T U V W X Y Z # 

O Come All Ye Faithful Tabs

(ver. 1) Click to play this song!
Rush Of Fools
 Rating:
4.3/5 (23 votes)

 O Come All Ye Faithful lessons Tabs too difficult? Try these video lessons and learn fast
 
                [Intro/Turn/Refrain]
e|-10---10---9---9---|-12---12---9---9---|-10---10---9---9---|-----------------|
B|---10---10--10--10-|---10---10--10--10-|---10---10--10--10-|-12--12--12--12--|
G|-------------------|-------------------|-------------------|---9---9---9---9-|
D|-------------------|-------------------|-------------------|-----------------|
A|-------------------|-------------------|-------------------|-----------------|
E|-------------------|-------------------|-------------------|-----------------|
   1    2    3   4     1    2    3   4     1    2    3   4     1   2   3   4 

[Verse]
   A                                       A                           E
e|-------------------|-------------------|-------------------|-----------------|
B|-10----------------|-------------------|-10----------------|---------12------|
G|-9-----------------|-------------------|-9-----------------|---------9-------|
D|-------------------|-------------------|-------------------|-----------------|
A|-------------------|-------------------|-------------------|-----------------|
E|-------------------|-------------------|-------------------|-----------------|     

   F#m                 C#m7                E         B7        E 
e|-9-----------------|-------------------|-12--------7-------|-12--------------|
B|-10----------------|-9-----------------|-12--------7-------|-12--------------|
G|-11----------------|-9-----------------|-9---------8-------|-9---------------|
D|-------------------|-9-----------------|-------------------|-----------------|
A|-------------------|-------------------|-------------------|-----------------|
E|-------------------|-------------------|-------------------|-----------------|

   A                   D         A         E 
e|-9-----------------|-10--------9-------|-12----------------|-----------------|
B|-10----------------|-10--------10------|-12----------------|-----------------|
G|-9-----------------|-7---------9-------|-9-----------------|-----------------|
D|-------------------|-------------------|-------------------|-----------------|
A|-------------------|-------------------|-------------------|-----------------|
E|-------------------|-------------------|-------------------|-----------------|

   A                                       A                           E
e|-9-----------------|-------------------|-9-----------------|---------12------|
B|-10----------------|-------------------|-10----------------|---------12------|
G|-9-----------------|-------------------|-9-----------------|---------9-------|
D|-------------------|-------------------|-------------------|-----------------|
A|-------------------|-------------------|-------------------|-----------------|
E|-------------------|-------------------|-------------------|-----------------|

   D                   E         F#m       A         E         [Turn/Refrain] 
e|-10----------------|-12--------9-------|-9---------12------|-----------------|
B|-10----------------|-12--------10------|-10--------12------|-----------------|
G|-7-----------------|-9---------11------|-9---------9-------|-----------------|
D|-------------------|-------------------|-------------------|-----------------|
A|-------------------|-------------------|-------------------|-----------------|
E|-------------------|-------------------|-------------------|-----------------|            
Submit corrections


        O Come All Ye Faithful lessons Hard to play? Try these video lessons and learn fast O Come All Ye Faithful lessons
        
↑ Back to top | Tablatures and chords for acoustic guitar and electric guitar, ukulele, drums are parodies/interpretations of the original songs. You may use it for private study, scholarship, research or language learning purposes only