Home » R » Runrig »

Runrig - One Thing Intro Tabs

Artists:  A B C D E F G H I J K L M N O P Q R S T U V W X Y Z # 

One Thing Intro Tabs

(ver. 1) Click to play this song!
Runrig
Tuning: Standard

e|-----------------------------------------7------------7--------------------|
B|----------------------------------7h10-----------10--------7---------------|
G|----------------------------7----------------------------------------------|
D|--------7h9-------9h11-----------------------------------------------------|
A|---------------------------------------------------------------------------|
E|---------------------------------------------------------------------------|

e|---------------------------------------------------------------------------|
B|-------------7-------------------------------------------------------------|
G|-----7h9---------------9-----7---------------------------------------------|
D|-------------------------------------9----------7------7h9-----------------|
A|---------------------------------------------------------------------------|
E|---------------------------------------------------------------------------|

e|-----------------------7-----------------7---------------------------------|
B|-------------------7------7-----------7-----7------------------------------|
G|---------------7-------------7-----7-----------7---------------------------|
D|----------9---------------------9------------------------------------------|
A|---------------------------------------------------------------------------|
E|---------------------------------------------------------------------------|
            
Submit corrections

↑ Back to top | Tablatures and chords for acoustic guitar and electric guitar, ukulele, drums are parodies/interpretations of the original songs. You may use it for private study, scholarship, research or language learning purposes only