Home » R » Runrig »

Runrig - Book Of Golden Stories Tabs

Artists:  A B C D E F G H I J K L M N O P Q R S T U V W X Y Z # 

Book Of Golden Stories Tabs

(ver. 1) Click to play this song!
Runrig
(Live)
Tuning: Standard EADGBe


**Capo 3rd fret**


This song is really nice to play once you get the picking right.  You are
essentially playing the four bass notes with your thumb and the two high
notes with your middle and index finger.  Hope this helps.


Verse:

    C(Eb)                                            G(Bb)
e|-----------0-----------------------0------------|-----------3-----------------------3------------|
B|-----------------1-----------------------1------|-----------------3-----------------------3------|
G|--------------0-----------------------0---------|--------------0-----------------------0---------|
D|--------2-----------2-----------2-----------2---|--------0-----------0-----------0-----------0---|
A|--3-----------------------3---------------------|------------------------------------------------|
E|------------------------------------------------|--3-----------------------3---------------------|

    Am(Cm)                                           Fmaj7(G#maj7)           G(Bb)
e|-----------------------3-----------0------------|-----------0-----------------------3------------|
B|-----------0-h1--------------1-----------1------|--1--------------1--------3--------------3------|
G|--------------------------------2-----------0---|--------2-----------2-----------------0---------|
D|--------2-----------2---------------------------|--3-----------------------------0-----------0---|
A|--0---------------------------------------------|------------------------------------------------|
E|------------------------------------------------|--------------------------3---------------------|


Chorus:

    C(Eb)                   Fmaj7/A(G#maj7/C)        Em(Gm)                  F(G#)
e|-----------0-----------------------0------------|-----------0-----------------------1------------|
B|-----------------1-----------------------1------|-----------------0-----------------------1------|
G|--------------0-----------------------2-----2---|--------------0-----------------------2---------|
D|--------2-----------2-----------3---------------|--------2-----------2-----------3-----------3---|
A|--3-----------------------0---------------------|------------------------------------------------|
E|------------------------------------------------|--0-----------------------1---------------------|

    C                       Fmaj7/A(G#maj7/C)        G(Bb)
e|-----------0-----------------------0------------|-----------3-----------------------3------------|
B|-----------------1-----------------------1------|-----------------3-----------------------3------|
G|--------------0-----------------------2-----2---|--------------0-----------------------0---------|
D|--------2-----------2-----------3---------------|--------0-----------0-----------0-----------0---|
A|--3-----------------------0---------------------|------------------------------------------------|
E|------------------------------------------------|--3-----------------------3---------------------|

    Am(Cm)                  Fmaj7(G#maj7)            Em(Gm)                  F(G#)
e|-----------0-----------------------0------------|-----------0-----------------------1------------|
B|-----------------1-----------------------1------|-----------------0-----------------------1------|
G|--------------2-----------------2-----2---------|--------------0-----------------------2---------|
D|--------2-----------2-----3-----------------3---|--------2-----------2-----------3-----------3---|
A|--0---------------------------------------------|------------------------------------------------|
E|------------------------------------------------|--0-----------------------1---------------------|

    C(Eb)                   G(Bb)
e|-----------0-----------------------3------------|
B|-----------------1-----------------------3------|
G|--------------0-----------------------0---------|
D|--------2-----------2-----------0-----------0---|
A|--3---------------------------------------------|
E|--------------------------3---------------------|


Structure:

Verse  x 4
Chorus x 1
Verse  x 3
Chorus x 2 (One bar of C(Eb) between the two chorus riffs)
One bar of C(Eb), one strum of C(Eb) and one strum of G(Bb)
Finish with as many verse riffs as you like

Enjoy!
            
Submit corrections

↑ Back to top | Tablatures and chords for acoustic guitar and electric guitar, ukulele, drums are parodies/interpretations of the original songs. You may use it for private study, scholarship, research or language learning purposes only