Home » R » Run Aways »

Run Aways - Johnny Guitar Tabs

Artists:  A B C D E F G H I J K L M N O P Q R S T U V W X Y Z # 

Johnny Guitar Tabs

(ver. 1) Click to play this song!
Run Aways
Main riff
Rhythm guitar
e|------------------------2---0-----------|
B|------------------------3---0-----------|
G|----1---1-1---1-1---1---2---0---1-------|
D|----2---2-2---2-2---2-----------2-------|
A|----2---2-2---2-2---2-----------2-------|
E|----------------------------------------|

Bass guitar (can be also played on lead guitar on D string)
G-----------------------------------------|
D---2---0---2---5---2---2---7---5---2-----|
A-----------------------------------------|
E-----------------------------------------|

Bridge
Rhythm and lead guitar
e|-----------------------------|
B|-----------------------------|
G|-1--2--3--4--5--6--7--8--8\--|
D|-2--3--4--5--6--7--8--9--9\--|
A|-2--3--4--5--6--7--8--9--9\--|
E|-----------------------------|
  -----------------------------|every chord is played 16 times, except the last one, 
which is played 32 times, then slide

Main riff
Rhythm guitar stops playing around 4:40, lead guitar still soloing

Song ends with E chord (strum one time):
e|----|
B|----|
G|-1--|
D|-2--|
A|-2--|
E|----|
            
Submit corrections

↑ Back to top | Tablatures and chords for acoustic guitar and electric guitar, ukulele, drums are parodies/interpretations of the original songs. You may use it for private study, scholarship, research or language learning purposes only